PrimaNota.ru - самый крупный в мире бесплатный архив песенных текстов, аккордов, табулатур и нот


Misc Television - Get Smart - таба, видео

Регистрация Запомнить меня
Войти через:  Facebook Google Twitter Vk Yandex Mail.ru

Misc Television - Get Smart - таба, видео

Печатать
Просмотров: 108
                  Theme from "Get Smart"

Note: chords reflect what background horns are playing.

Verse 1:

        muted electric guitar [repeats throughout verse]:

        v     v     v     v
        ------------------------|
        --------0-1-2-1-0-------|
        0-1-2-3-----------3-2-1-|
        ------------------------|
        ------------------------|
        ------------------------|

        horns [arr. for guitar]:

               Fm    Gm Ab G     Gb     Fm    Gm Ab G     Gb
        v      v     v     v     v      v     v     v     v
        ------|------------------------|------------------------|
        ----6-|5-----------------------|6\--------------------6-|
        5-----|------------------------|------------------5-----|
        ------|------------------------|------------------------|
        ------|------------------------|------------------------|
        ------|------------------------|------------------------|

        Fm    Gm Ab G     Gb     Fm    Gm Ab G     Gb
        v     v     v     v      v     v     v     v
        ------------------------|------------------------|
        5-----------------------|----------------------6-|
        ------------------------|5\----------------5-----|
        ------------------------|------------------------|
        ------------------------|------------------------|
        ------------------------|------------------------|

        Fm7   Abm7  Gm    Gbm7   Fm    Abm   Bbm   C+
        v     v     v     v      v     v     v     v
        ------------------------|------------------------|
        5-----4---4-3-----2---2-|1-----0---0-------------|
        --5-----------3---------|--1---------3-1-------1-|
        ----6-----------5-------|----3-----------3---2---|
        ------------------------|------------------3-----|
        ------------------------|------------------------|

        Fm    Gm Ab G     Gb     Fm    Gm Ab G     Gb
        v     v     v     v      v     v     v     v
        ------------------------|------------------------|
        ------------------------|----------------------6-|
        3-----------------------|------------------5-----|
        ------------------------|------------------------|
        ------------------------|------------------------|
        ------------------------|------------------------|

Verse 2:

        muted electric guitar [repeats throughout verse]:

        v     v     v     v
        ------------------------|
        --------0-1-2-1-0-------|
        0-1-2-3-----------3-2-1-|
        ------------------------|
        ------------------------|
        ------------------------|

        guitar for last bar of verse:

        v     v     v     v
        ------------------------|
        ------------------------|
        0-1-2-3-2-1-0-----------|
        ------------------------|
        ------------------------|
        ------------------------|

        horns [arr. for guitar]:

        Fm    Gm Ab G     Gb     Fm    Gm Ab G     Gb
        v     v     v     v      v     v     v     v
        ------------------------|------------------------|
        5-----------------------|6\--------------------6-|
        ------------------------|------------------5-----|
        ------------------------|------------------------|
        ------------------------|------------------------|
        ------------------------|------------------------|

        Fm    Gm Ab G     Gb     Fm    Gm Ab G     Gb
        v     v     v     v      v     v     v     v
        ------------------------|------------------------|
        5-----------------------|----------------------6-|
        ------------------------|5\----------------5-----|
        ------------------------|------------------------|
        ------------------------|------------------------|
        ------------------------|------------------------|

        Fm7   Abm7  Gm    Gbm7   Fm    Abm   Bbm   C+
        v     v     v     v      v     v     v     v
        ------------------------|------------------------|
        5-----4---4-3-----2---2-|1-----0---0-------------|
        --5-----------3---------|--1---------3-1-------1-|
        ----6-----------5-------|----3-----------3---2---|
        ------------------------|------------------3-----|
        ------------------------|------------------------|

        Fm    Gm Ab G     Gb     Fm    Gm Ab Fm [N.C.]
        v     v     v     v      v     v     v     v
        ------------------------|------------------------|
        ------------------------|------------------------|
        3-----------------------|------------------------|
        ------------------------|----------------------3-|
        ------------------------|------------------3-----|
        ------------------------|------------------------|

Bridge:

        muted electric guitar:

        v     v     v     v      v     v     v     v
        ------------------------|------------------------|
        ------------------------|0---1-0-----------------|
        1---2-1-----------------|------------------------|
        ------------------------|------------------------|
        ------------------------|------------------------|
        ------------------------|------------------------|

        v     v     v     v      v     v     v     v
        ------------------------|------------------------|
        ------------------------|0---1-0-----------------|
        1---2-1-----------------|------------------------|
        ------------------------|------------------------|
        ------------------------|------------------------|
        ------------------------|------------------------|

        horns [arr. for guitar, played simultaneous w/ muted
               electric guitar]:

        Fm Gbm Fm                Dbm Dm Dbm
        v     v     v     v      v     v     v     v
        ------------------------|----------------------1-|
        ----------------------1-|0-----------------1-----|
        ------------------------|------------------------|
        2-----------------3-----|------------------------|
        ------------------------|------------------------|
        ------------------------|------------------------|

        Fm Gbm Fm                Dbm Dm Dbm
        v     v     v     v      v     v     v     v
        0---------------------8-|7-----------------------|
        ------------------6-----|----------------------6-|
        ------------------------|------------------5-----|
        ------------------------|------------------------|
        ------------------------|------------------------|
        ------------------------|------------------------|

Verse 3:

        muted electric guitar [repeats throughout verse,
                               except for last 2 bars]:

        v     v     v     v
        ------------------------|
        --------0-1-2-1-0-------|
        0-1-2-3-----------3-2-1-|
        ------------------------|
        ------------------------|
        ------------------------|

        horns [arr. for guitar]:

        Fm    Gm Ab G     Gb     Fm    Gm Ab G     Gb
        v     v     v     v      v     v     v     v
        ------------------------|------------------------|
        5-----------------------|6\--------------------6-|
        ------------------------|------------------5-----|
        ------------------------|------------------------|
        ------------------------|------------------------|
        ------------------------|------------------------|

        Fm    Gm Ab G     Gb     Fm    Gm Ab G     Gb
        v     v     v     v      v     v     v     v
        ------------------------|------------------------|
        5-----------------------|----------------------6-|
        ------------------------|5\----------------5-----|
        ------------------------|------------------------|
        ------------------------|------------------------|
        ------------------------|------------------------|

        Fm7   Abm7  Gm    Gbm7   Fm    Abm   Bbm   C+
        v     v     v     v      v     v     v     v
        ------------------------|------------------------|
        5-----4---4-3-----2---2-|1-----0---0-------------|
        --5-----------3---------|--1---------3-1-------1-|
        ----6-----------5-------|----3-----------3---2---|
        ------------------------|------------------3-----|
        ------------------------|------------------------|

        Fm [N.C.]              Abmaj7+ Fm [end cold]
        v     v     v     v      v     v     v     v
        ------------------------|3-----------------------|
        ------------------------|5-----------------------|
        3-----------------------|5-----------------------|
        ------------------------|6-----------------------|
        ------------------------|------------------------|
        ------------------------|------3-----------------|

Alternate ending from closing theme [replaces last bar]:

        Abmaj7+
        v     v     v     v
        3---3---3---3-----------|
        5---5---5---5-----------|
        5---5---5---5-----------|
        6---6---6---6-----------|
        ------------------------|
        ------------------------|

Questions? Comments? E-mail Alex at springalo430@hotmail.com
     
Добавлено: 22.09.2013
Другие материалы по этой песне:

Страница создана 21.02.2012
http://primanota.ru/misc-television/get-smart-chords.htm
Привет, Гость.
Предлагаем пройти революционный курс по гитаре.
Подарок от PrimaNota.Ru, забирай!