PrimaNota.ru - самый крупный в мире бесплатный архив песенных текстов, аккордов, табулатур и нот


Misc Television - Full House Theme - аккорды и текст, таба, видео

Регистрация Запомнить меня
Войти через:  Facebook Google Twitter Vk Yandex Mail.ru

Misc Television - Full House Theme - аккорды и текст, таба, видео

Печатать
Просмотров: 210
Уроки эстрадного вокала в Санкт-Петербурге
Full House Theme
Misc Television
This is one way to play the Full House Theme. I think its how the song was in the later season(s)

Main E-riff....
E---------------------------------------|
B---------------------------------------|
G---------------------------------2-----|
D---------------------------2-----2-----|
A-----------------2---------------0-----|
E---0---0--3^4-------4------------------|
-or-
E---------------------------------------|
B---------------------------------------|
G---1-----------------------------2-----|
D---2-----------------------2-----2-----|
A---2-------------2---------------0-----|
E---0---0--3^4-------4------------------|

E-riff
aaaahhhhhh
E-riff
scat singing
E-riff
What ever happened to predictability?
E-riff
The milkman, the paperboy, evening TV.
A                               B
miss your old familiar friends, waiting just around the bend


E     B          C#m        B             A
Everywhere you look , everywhere you go (there's a heart). There's a heart
    B
A hand to hold onto.

E     B          C#m        B             A
Everywhere you look , everywhere you go., There's a face,
      B
Of somebody who needs you.


E    B         C#m        B
Eveywhere you look, Everywhere
            A                         Ab
When you're lost out there and you're all alone,
  C#m      B          A         B
A light is waiting to carry you home,
                    E-riff
Everywhere you look.           aaaahhhhhh
E riff
       Everywhere you look (or) scat singing
Добавлено: 25.04.2012
Другие материалы по этой песне:
  • Аккорды и текст

Страница создана 25.04.2012
http://primanota.ru/misc-television/full-house-theme-chords.htm
Привет, Гость.
Предлагаем пройти революционный курс по гитаре.
Подарок от PrimaNota.Ru, забирай!