PrimaNota.ru - самый крупный в мире бесплатный архив песенных текстов, аккордов, табулатур и нот


Misc Television - Flintstones - аккорды и текст, таба, видео

Регистрация Запомнить меня
Войти через:  Facebook Google Twitter Vk Yandex Mail.ru

Misc Television - Flintstones - аккорды и текст, таба, видео

Печатать
Просмотров: 184
Flintstones
Misc Television
Author/Artist: ????
Title: The Flinstones
Album: ***
Transcribed by: Maarten Burvenich
Email: yeah@compaqnet.be

Flinstones theme modified for Powerchords!!!
It rocks! Use lots of distortion!!!

---------|-----------------|--------------------------|-----------------------|
---------|-----------------|--------------------------|-----------------------|
---------|-----------------|--------------------------|-----------------------|
-11--7x--|-14--12-11--7x---|-14-12-11-11-12-14-7-9-11-|-----------------------|
-11--7x--|-14--12-11--7x---|-14-12-11-11-12-14-7-9-11-|-----------------------|
-9---5x--|-12--10-9---5x---|-12-10-9--9--10-12-5-7-9--|-----------------------|


---------|-----------------|--------------------------|-----------------------|
---------|-----------------|--------------------------|-----------------------|
---------|-----------------|--------------------------|-----------------------|
-11--7x--|-14--12-11--7x---|-14-12-11-11-12-14-7-9-7--|-----------------------|
-11--7x--|-14--12-11--7x---|-14-12-11-11-12-14-7-9-7--|-----------------------|
-9---5x--|-12--10-9---5x---|-12-10-9--9--10-12-5-7-5--|-----------------------|


---------------------------|--------------------------|-----------------------|
---------------------------|--------------------------|-----------------------|
---------------------------|--------------------------|-----------------------|
---------------------------|--------------------------|-----------------------|
-12-5-13-12-12-10-10-12-10-|-10-3-12-10-10-8-8-10-8---|-----------------------|
---------------------------|--------------------------|-----------------------|


---------|-----------------|--------------------------------------------------|
---------|-----------------|--------------------------------------------------|
---------|-----------------|--------------------------------------------------|
-11--7x--|-14--12-11--7x---|-14-12-11-11-12-14-7-9----------------------------|
-11--7x--|-14--12-11--7x---|-14-12-11-11-12-14-7-9----------------------------|
-9---5x--|-12--10-9---5x---|-12-10-9--9--10-12-5-7----------------------------|


--------------|---------------------------------------------------------------|
--------------|---------------------------------------------------------------|
--------------|----------14-16-14---------------------------------------------|
-11-12-14-7-9-|-11-12-14-14-16-14---------------------------------------------|
-11-12-14-7-9-|-11-12-14-12-14-12---------------------------------------------|
-9--10-12-5-7-|-9--10-12------------------------------------------------------|
Добавлено: 26.05.2012
Другие материалы по этой песне:
  • Аккорды и текст

Страница создана 26.05.2012
http://primanota.ru/misc-television/flintstones-chords.htm
Привет, Гость.
Предлагаем пройти революционный курс по гитаре.
Подарок от PrimaNota.Ru, забирай!