PrimaNota.ru - самый крупный в мире бесплатный архив песенных текстов, аккордов, табулатур и нот


Misc Television - First Wave Theme - таба, видео

Регистрация Запомнить меня
Войти через:  Facebook Google Twitter Vk Yandex Mail.ru

Misc Television - First Wave Theme - таба, видео

Печатать
Просмотров: 97
First Wave Intro theme
Clean guitar w/ tremelo effect
e|-----------------------------------------------------------------------|
B|-----------------------------------------------------------------------|
G|-----------------------------------------------------------------------|
D|------10~~~~------10-/12-9~~~----------14~~~~-------14-/15-11~~~-------|
A|--7h8---------7h8----------------10h12--------10h12--------------------|
E|-----------------------------------------------------------------------|


First Wave Outro Theme/End credits
e|-----------------------------------------------------------------------|
B|-----------------------------------------------------------------------|
G|-----------------------------------------------------------------------|
D|------10~~~~------10-/12-9~~~----------14~~~~-------14-/15-11~~~-------|
A|--7h8---------7h8----------------10h12--------10h12--------------------|
E|-----------------------------------------------------------------------|

e|-----------------------------------------------------------------------|
B|-----------------------------------------------------------------------|
G|-----------------------------------------------------------------------|
D|------10~~~~------10-/12-9~~~----------14~~~~-------14-/15-11~~~-------|
A|--7h8---------7h8----------------10h12--------10h12--------------------|
E|-----------------------------------------------------------------------|

e|-----------------------------------------------------------------------|
B|-----------------------------------------------------------------------|
G|--------x---12b14~~~~--10~~~~-----15b17~~~~----13b14--13~~~------------|
D|------x----------------------------------------------------------------|
A|----x------------------------------------------------------------------|
E|-----RAKE--------------------------------------------------------------|

e|-----------------------------------------------------------------------|
B|-----------------------------------------------------------------------|
G|-----------------------------------------------------------------------|
D|------11~~~-----11-/13-10~~~~------------------------------------------|
A|--8h9-------8h9--------------------------------------------------------|
E|-----------------------------------------------------------------------|
Добавлено: 10.07.2013
Другие материалы по этой песне:
  • Аккорды и текст

Страница создана 28.06.2013
http://primanota.ru/misc-television/first-wave-theme-chords.htm
Привет, Гость.
Предлагаем пройти революционный курс по гитаре.
Подарок от PrimaNota.Ru, забирай!