PrimaNota.ru - самый крупный в мире бесплатный архив песенных текстов, аккордов, табулатур и нот


Misc Soundtrack - Woodstock Theme - таба

Регистрация Запомнить меня
Войти через:  Facebook Google Twitter Vk Yandex Mail.ru

Misc Soundtrack - Woodstock Theme - таба

Печатать
Просмотров: 85
"Woodstock theme"

This tab is a theme from the animated motion picture "Snoopy come home" (or 
something)
I chose to call it "Woostock Theme" because Woodstock (the yellow bird) 
whisteles the song.
It's a very easy tab, and quite fun to play. Believe me you'll learn it in a 
minute.


e:--------------------------------------------------------------------|
B:-----------------------3--3--3--1--1--0-----------------0-----------|
G:--0--0-----0--2--2-----------------------2--0--0--0--2-----0--------|
D:--------0-----------0-----------------------------------------2--0--|
A:--------------------------------------------------------------------|
E:--------------------------------------------------------------------|


e:-------------------0-----------------------------|
B:----------------------3--1--3--1--3--1--0--------|
G:-0--0-----0--2--2--------------------------2--0--|
D:-------0-----------------------------------------|
A:-------------------------------------------------|
E:-------------------------------------------------|


e:---------------------------------------------------------------------------|
B:-1--0--1-----0-----0-----1--0--1--0--1--0--1-----0--------0--0--0--0-------|
G:----------2-----2-----0-----------------------2-----2--0--------------2--0-|
D:---------------------------------------------------------------------------|
A:---------------------------------------------------------------------------|
E:---------------------------------------------------------------------------|


e:-------------------------------------------|
B:----0--0--0--0-----------0--------0--2--3--|
G:----------------2--0--------2--2-----------|
D:-2--------------------2--------------------|
A:-------------------------------------------|
E:-------------------------------------------|


e:----------------------------------------------------------------|
B:----------------------3--3--3--1--0-----------------0-----------|
G:-0--0-----0--2--2--------------------2--0--0--0--2-----0--------|
D:-------0-----------0--------------------------------------2--0--|
A:----------------------------------------------------------------|
E:----------------------------------------------------------------|


e:-------------------0--------------------------0-----0-----0----------------|
B:----------------------3--1--3--1--3--1--0--------3-----3-----3--1--0-------|
G:-0--0-----0--2--2--------------------------2--------------------------2--2-|
D:-------0-------------------------------------------------------------------|
A:---------------------------------------------------------------------------|
E:---------------------------------------------------------------------------|


e:-------------3|
B:-0--1--3--3---|
G:-------------0|
D:--------------|
A:--------------|
E:--------------|


Enjoy!
Please mail me comments.

NB!
Im looking for a tab on Eric Claptons "Reptile"

Transscriptes by
Lars  tabwriter@hotmail,com>
     
Добавлено: 30.07.2013
Другие материалы по этой песне:
  • Аккорды и текст

Страница создана 30.07.2013
http://primanota.ru/misc-soundtrack/woodstock-theme-chords.htm
Привет, Гость.
Предлагаем пройти революционный курс по гитаре.
Подарок от PrimaNota.Ru, забирай!