PrimaNota.ru - самый крупный в мире бесплатный архив песенных текстов, аккордов, табулатур и нот


Misc Soundtrack - Tum Mile Theme - таба, видео

Регистрация Запомнить меня
Войти через:  Facebook Google Twitter Vk Yandex Mail.ru

Misc Soundtrack - Tum Mile Theme - таба, видео

Печатать
Просмотров: 104
PTL

                            Tum mile
                    From the movie Tum mile


Tabbed by(Dr.s)Sanjeev George and Thomas George
Email:sanjeevgeorge123@yahoo.co.in

Submitted to and for www.ultimate-guitar.com only, the site for all your tab needs

Tuning:std

Guitar 1
e|------------------------------------------------------------------|
B|--------1------3------1------3-------1--------3------1------3-----|
G|------0------0------0------0-------0--------0------0------0-------|
D|------------------------------------------0-----------------------|
A|----3------1------3------1-------3------1--------3------1---------|
E|------------------------------------------------------------------|


e|---------------------------------------|
B|---------1------3-------1--------3-----|
G|-------3------3-------3--------3-------|
D|-----------------------------0---------|
A|------------1--------------1-----------|
E|----4--------------4-------------------|

e|---------------------------------|
B|--------1------3------1------3---|
G|------0------0------0------0-----|
D|---------------------------------|
A|----3------1------3------1-------|
E|---------------------------------|

Guitar 2(W/pitch shifter)

e|----20b27------|
B|---------------|
G|---------------|
D|---------------|
A|---------------|
E|---------------|

Then Guitar 2
e|------------------------------------------|
B|----10b12-8v—8\6-6v----10b12-8v-8/6-6v----|
G|------------------------------------------|
D|------------------------------------------|
A|------------------------------------------|
E|------------------------------------------|

e|--------------------------------------------------------|
B|----10b12r10-8v-----------------------------------------|
G|------------------8-6/8—8h10v----8h10\5---8h10v-8h10\---|
D|--------------------------------------------------------|
A|--------------------------------------------------------|
E|--------------------------------------------------------|

e|----8v----------------8v------------------|
B|-------8-----------------8----------------|
G|-----------8-10/12-----------8-10/12v-----|
D|------------------------------------------|
A|------------------------------------------|
E|------------------------------------------|

Guitar 3(towards end of intro)
e|----8---10---8---12-----10-----10---------|
B|------8----8---8----8------8------8-------|
G|----------------------0------0------------|
D|------------------------------------------|
A|------------------------------------------|
E|------------------------------------------|

e|----8---10---8---12-----10-----10---------|
B|------8----8---8----8------8------8-------|
G|----------------------0------0------------|
D|------------------------------------------|
A|------------------------------------------|
E|------------------------------------------|

Verse 1
Guitar 1: chords as below
Guitar 2
e|--------8-7---------8-7---------8-7---------8-7--------8-7---------------|
B|------------8-----------8-----------8-----------8----------8-------------|
G|--------------9-----------9-----------9-----------9--7-------9-----------|
D|----10----------10----------10----------10-------------------------------|----|
A|-------------------------------------------------------------------------|    |
E|-------------------------------------------------------------------------|    |- play as reqd
                                                                                |
e|--------8-7---------8-7------------|                                          |
B|-----------------------------------|                                          |
G|------------7-9---------7-9--------|                                          | 
D|----10----------10-----------------|------------------------------------------|
A|-----------------------------------|
E|-----------------------------------|


Chorus
Guitar 1:power chords
Guitar 2:standard chords (as given below)

Solo 1
Guitar 2
e|------------15v------------------------------------------------------------|
B|-------(13)--------15b16v----11h13----13p11----15v-----------11h13-13v-----|
G|----12--------------------------------------12--------12v------------------|
D|---------------------------------------------------------------------------|
A|---------------------------------------------------------------------------|
E|---------------------------------------------------------------------------|

e|----11----11-13-13b15-15-15r13p11----11-13-11-10v--------------------------|
B|-------13-------------------------13------------------------13h15----------|
G|-----------------------------------------------------12v-------------------|
D|---------------------------------------------------------------------------|
A|---------------------------------------------------------------------------|
E|---------------------------------------------------------------------------|

e|--13-12-----------------12-------12-15-15b17vvv-----|
B|--------13--------13-15----13-15--------------------|
G|-----------12v--------------------------------------|
D|----------------------------------------------------|
A|----------------------------------------------------|
E|----------------------------------------------------|

Stanzas
Guitar 1: chords as given below

Guitar 2 in the stanzas
e|----------0----------0--------0---------0----|
B|--------1----------3--------1---------3------|
G|------2-------------------2------------------|
D|-----------------2------------------2--------|
A|----0----------3--------0---------3----------|
E|---------------------------------------------|

e|----------0--------0----------0---------0----|
B|--------1--------1----------1---------1------|
G|------2--------2-----------------------------|
D|----3--------3-----------2----------2--------|
A|-----------------------3----------3----------|
E|---------------------------------------------|

Small phrase in stanza 1
Guitar 3
e|------------------------------------------------|
B|---------13-15-15b17-r15-13----13-15-13-12v-----|
G|----12----------------------12------------------|
D|------------------------------------------------|
A|------------------------------------------------|
E|------------------------------------------------|

Chorus again

Solo 2

Guitar 1: D5   G5   C5   
          F5 E5   D5   G5   C5
          C5
          E5   D5   C5   E5
          F5   D5   C5

Guitar 2
e|------------------------------------------------------|
B|---------------------7b8-7v----/10-\8-----------------|
G|--------5-7-7b9-r7--------------------5-7-7b9r7-7v----|
D|----5-7-----------------------------------------------|
A|------------------------------------------------------|
E|------------------------------------------------------|

e|---------------------------------------------------|
B|---------------------7b8-7v----/10-12-13-/15-13v---|
G|--------5-7-7b9-r7---------------------------------|
D|----5-7--------------------------------------------|
A|---------------------------------------------------|
E|---------------------------------------------------|

(Guitar 2 with chorus)
e|--10h12v----12p10----------------10-12v-------10---15-10---|
B|------------------13p10----10h13-----------13--------------|
G|------------------------12---------------------------------|
D|-----------------------------------------------------------|
A|-----------------------------------------------------------|
E|-----------------------------------------------------------|

e|--------17-19-19b20---20r19p17--19—t22b24p19v---|
B|-/17-20-----------------------------------------|
G|------------------------------------------------|
D|------------------------------------------------|
A|------------------------------------------------|
E|------------------------------------------------|

e|----15-17-19-19b20---19-17-15----15h17p15---------------------|
B|------------------------------17----------17p15----15h17p15---|
G|------------------------------------------------17------------|
D|--------------------------------------------------------------|
A|--------------------------------------------------------------|
E|--------------------------------------------------------------|

e|---------------------------------------------------------------------------|
B|---------------------------------------------------------------------------|
G|-17p14----14h17p14----------14h17p14---------------------------------------|
D|-------17----------17-14-17----------17p14-14\12-------12-12\10------------|
A|-------------------------------------------------15-12----------12---------|
E|---------------------------------------------------------------------------|

e|----------------------------------|
B|----------------------------------|
G|-------------9h12p9---------------|
D|-------10h12--------12-10vvv------|
A|-10h12----------------------------|
E|----------------------------------|

e|----------------------15-----12-----10-----------10-----12-----15-----t20v----|
B|----------13-------13---------------------13----------------------------------|
G|-------12-------12------------------------------------------------------------|
D|----10-------10----------10-----10-----10----10-----10-----10-----10----------|
A|-10---------------------------------------------------------------------------|
E|------------------------------------------------------------------------------|

Stanza2
Chorus

Then guitar 2 plays Eb  F  C

Outro
Same as the intro once
Ends on
Guitar 2(W/pitch shifter)
e|----20b27------|
B|---------------|
G|---------------|
D|---------------|
A|---------------|
E|---------------|


| /  slide up
| \  slide down
| h  hammer-on
| p  pull-off
| ~  let ring
| +  harmonic
| x  Mute note
| v  vibrato


Guitar 1 chords
Verse 1
  Am             G
Tu hi meri hai sari zameen
   F             D
Chahe kahin se chalun
    F             C
Tujh pe hi aa ke rukun
  Am              G
Tere siva maun jaun kahan
   F           D
Koi bhi raah chunu
    F             C
Tujh pe hi aa ke rukun

Chorus

    C5                 G5
Tum mile to lamhein tham gaye
      A5          E5  
Tum mile to saaray gham gaye
     F5     C5     G5  A5   B5  F5 G5
Tum mile to muskurana aa gaya


      A5            E5
Tum mile to jadoo chaa gaya
    F5            E5
Tum mile to jeena aa gaya
      D5          C5    G5     C5
Tum mile to mene paya hai khuda

Solo 1

Stanza 1
O Oo

   Am           G
Tujh mein kinara dikhe
 Am          G
Dil ko sahara dikhe
  F                 C
Aa mere dhadkan tham le

aahna

 Am           G
Teri taraf hi muday
  Am             G
Yeh saas tujhse jude
  F                  C
Har pal yeh tera naam le


Chorus

     A5              E5
Tum mile to abb kya hai kamee
      F5            E5
Tum mile to duniya mil gayi
    F5        C5  G5 A5  B5  F5 G5
Tum mile to mil gaya aasra

  A5               E5
Tum mile to jadoo chaa gaya
      A5           E5
Tum mile to jeena aa gaya
     D5           C5    G5     C5
Tum mile to mene paya hai khuda

Solo 2

Stanza 2(same as stanza 1)
Din mere tujhse chale
Raatein bhi tujhse dhale
Hai waqt tere haath mein

hooo Tu hi shehar hai mera
Tujh mein hi ghar hai mera
Rehta hai tere saath mein

Chorus(same chords)

Tum mile to mil gaya humsafar
Tum mile to khud ki hai khabar
Tum mile to ristha sa ban gaya
Tum mile to jadoo chaa gaya
Tum mile to jeena aa gaya
Tum mile to mene paya hai khuda


Outro
Eb5   F5   C5


Hope nothing's been missed out. Please rate and comment
Добавлено: 21.02.2012
Другие материалы по этой песне:
  • Аккорды и текст

Страница создана 21.02.2012
http://primanota.ru/misc-soundtrack/tum-mile-theme-chords.htm
Привет, Гость.
Предлагаем пройти революционный курс по гитаре.
Подарок от PrimaNota.Ru, забирай!