PrimaNota.ru - самый крупный в мире бесплатный архив песенных текстов, аккордов, табулатур и нот


Misc Soundtrack - Salute Your Shorts Theme - аккорды и текст

Регистрация Запомнить меня
Войти через:  Facebook Google Twitter Vk Yandex Mail.ru

Misc Soundtrack - Salute Your Shorts Theme - аккорды и текст

Печатать
Просмотров: 106
Salute Your Shorts Theme
Misc Soundtrack
Salute Your Shorts Theme
tabbed by Robb

This is my first tab, so I hope you like it. This isn't 100% right but 
good enough to play and bring back the memories. I couldn't believe 
nobody had this hopefully someone will use this to make a more correct 
version.

(Update 9/11/2010)
Added another version that still isn't quite right but I think I like it better 
than the first. Also included the tab to play along with the words

Version 1

   C              Am
We run we jump we swim and play
   F             Eb
We Row and go on trips
F                   Eb
But the things that last forever
F                  G
Are our dear friendships


C        Am
Camp Annawanna
   F               G
We hold you in our hearts
    F              G
And when we think about you
   F              G
It makes me wanna fart 
(It's I hope we never part now get it right or pay the price)


     C               Am
Now, We will share a lifetime 
   F             Eb
of the fondest memories
       F           Eb
By the lake of Annawanna
    F               G
Set in the old pine trees


C        Am
Camp Annawanna
   F               G
We hold you in our hearts
    F              G
And when we think about you
     F                G
This thing just fell apart


Version 2(Update 9/11/2010)

A  C      B       A        G
We run we jump we swim and play
   A             G
We Row and go on trips
A       B      A    G    Ab A C
But the things that last forever
A       C    A     B
Are our dear friendships


G       A G  Em
Camp Annawanna
G  A               G
We hold you in our hearts
    A       B     A G   C
And when we think about you
   A        C  A  B
It makes me wanna fart 
(It's I hope we never part now get it right or pay the price)


G    C       B       A
Now, We will share a lifetime 
G      A            G
of the fondest memories
       A           G
By the lake of Annawanna
    F#     E   F    G
Set in the old pine trees


G       A G  Em
Camp Annawanna
G  A               G
We hold you in our hearts
    A       B     A G   C
And when we think about you
     A          C    A B
This thing just fell apart



If you wanna play the words to the song on guitar here's the tab
(Update 9/11/2010)

e|---------------------------------------------------------------| 
B|---------------------------------------------------------------| 
G|---------------------------------------------------------------| 
D|---------------------------------------------------------------| 
A|---3-3-2-2-----------------------2---------3-----3---2---------| 
E|-5---------5-5-3-3-5-5-5-5-3-5-5---5-3-4-5---5-5---5-----------|
we run we jump...

e|---------------------------------------------------------------| 
B|---------------------------------------------------------------| 
G|---------------------------------------------------------------| 
D|---------------------------------------------------------------| 
A|-----------------------------2-----3-------3---2---------------| 
E|-3-3-5-3-0-3-5-5-5-5-3-3-5-5---5-3---5-5-5---5-----------------|
Camp Annawanna...

e|---------------------------------------------------------------| 
B|---------------------------------------------------------------| 
G|---------------------------------------------------------------| 
D|---------------------------------------------------------------| 
A|---3-3-2-2-----------------------------------------------------| 
E|-3---------5-5-3-3-5-5-5-5-3-3-3-5-5-5-5-3-3-3-2-2-0-2-3-------|
Now we will share...

e|---------------------------------------------------------------| 
B|---------------------------------------------------------------| 
G|---------------------------------------------------------------| 
D|---------------------------------------------------------------| 
A|-----------------------------2-----3-------3---2---------------| 
E|-3-3-5-3-0-3-5-5-5-5-3-3-5-5---5-3---5-5-5---5-----------------|
Camp Annawanna...
Добавлено: 09.04.2012
Другие материалы по этой песне:
  • Аккорды и текст

Страница создана 09.04.2012
http://primanota.ru/misc-soundtrack/salute-your-shorts-theme-chords.htm
Привет, Гость.
Предлагаем пройти революционный курс по гитаре.
Подарок от PrimaNota.Ru, забирай!