PrimaNota.ru - самый крупный в мире бесплатный архив песенных текстов, аккордов, табулатур и нот


Misc Soundtrack - Requiem For A Dream Theme - таба, видео

Регистрация Запомнить меня
Войти через:  Facebook Google Twitter Vk Yandex Mail.ru

Misc Soundtrack - Requiem For A Dream Theme - таба, видео

Печатать
Просмотров: 254
This is is my first guitar tab so bear with me.

INTRO:
e--------------------------------|
B--------------------------------|
G-320----320-----320----5320-----|
D-----0------0-------0-----------|
A--------------------------------|
E--------------------------------|
(0:14-0:15ish) into the song
e--------------------------------|
B--------------------------------|
G-0-------2---3----0-------------|
D--------------------------3---1-|
A--------------------------------|
E--------------------------------|
(0:29)
e-6-6-6-6-6-6-6-6-5-5-5-5-8-8-8-5-|
B---------------------------------|
G---------------------------------|
D---------------------------------|
A---------------------------------|
E---------------------------------|
(0:43)
e-6-10-6---6-10-6---6-10-6---6-10-6---|
B--------3--------3--------3--------3-|
G-------------------------------------|
D-------------------------------------|
A-------------------------------------|
E-------------------------------------|

e-5-10-5---5-10-5---8-10-8---8-10-8---|
B--------3--------3--------3--------3-|
G-------------------------------------|
D-------------------------------------|
A-------------------------------------|
E-------------------------------------|
(0:57)
e-63-6363--6363--63-6363636365--6565--6565-|
B------------------------------------------|
G------------------------------------------|
D------------------------------------------|
A------------------------------------------|
E------------------------------------------|

e-65-6565656563--6363--6363--63636363-65-|
B----------------------------------------|
G----------------------------------------|
D----------------------------------------|
A----------------------------------------|
E----------------------------------------|

e-6565--6565--65-65656565--------------|
B--------------------------------------|
G--------------------------------------|
D--------------------------------------|
A--------------------------------------|
E--------------------------------------|
Interesting part
e-6655--3-66-6655--3-66-6655--3-33-3555-5666-|
B--------------------------------------------|
G--------------------------------------------|
D--------------------------------------------|
A--------------------------------------------|
E--------------------------------------------|

e-6655--3-66-6655--3-33-3555-5666-|      And that's basically it.Have fun.
B---------------------------------|      Questions,comments,or corrections?
G---------------------------------|      Email me at:chanaberrie@yahoo.com
D---------------------------------|
A---------------------------------|
E---------------------------------|
Добавлено: 09.04.2012
Другие материалы по этой песне:

Страница создана 26.02.2012
http://primanota.ru/misc-soundtrack/requiem-for-a-dream-theme-chords.htm
Привет, Гость.
Предлагаем пройти революционный курс по гитаре.
Подарок от PrimaNota.Ru, забирай!