PrimaNota.ru - самый крупный в мире бесплатный архив песенных текстов, аккордов, табулатур и нот


Misc Soundtrack - Pokemon - Black And White Theme - бас-таба, видео

Регистрация Запомнить меня
Войти через:  Facebook Google Twitter Vk Yandex Mail.ru

Misc Soundtrack - Pokemon - Black And White Theme - бас-таба, видео

Печатать
Просмотров: 122
-----------------------------------------------------------------------------
                             POKEMON BLACK AND WHITE MOVIE THEME
-----------------------------------------------------------------------------
Tabbed by: Jupsi
E-mail: mikkel_majlund@hotmail.com

Tuning: Standard (EADG)

A/N: This is the movie-version, as heard here: www.youtube.com/watch?v=NmN3iLEdomU

Intro:
1 bar rest, then
G:|---------------|---------------|
D:|/5~~~~~~~~~~~~~|~~~~~~~~~~~~~--|
A:|---------------|---------------|
E:|---------------|---------------|
   1 - 2 - 3 - 4 - 1 - 2 - 3 - 4 -

G:|---------------|---------------|
D:|5~~~~~~~~~~~~~~|~~~~~~~~~~~~---|
A:|---------------|------------5~~|
E:|---------------|---------------|
   1 - 2 - 3 - 4 - 1 - 2 - 3 - 4 -

Verse:                ______________
G:|---------------|                 \
D:|---------------|                  \
A:|---------------| (Hold for 4 bars) \
E:|3~~~~~~~~~~~~~~|                    \
   1 - 2 - 3 - 4 -                      \
                                         \
G:|---------------|---------------|       \
D:|---------------|---------------|        \
A:|3~~~~~~~~~~~~~~|~~~~~~~~~~~~~~~| x2      \
E:|---------------|---------------|          \
   1 - 2 - 3 - 4 - 1 - 2 - 3 - 4 -            \
                                               \
G:|---------------|---------------|               x2
D:|---------------|---------------|            /
A:|0~~~~~~~~~~~~~~|2~~~~~~~~~~~~~~|           /
E:|---------------|---------------|          /
   1 - 2 - 3 - 4 - 1 - 2 - 3 - 4 -          /
                                           /
G:|---------------|---------------|       /
D:|---------------|---------------|      /
A:|3~~~~~~~~~~~~~~|~~~~~~~~~~~~~~~|     /
E:|---------------|---------------|    /
   1 - 2 - 3 - 4 - 1 - 2 - 3 - 4 -    /
                          ------------
Chorus:
G:|---------------|---------------|
D:|---------------|---------------|
A:|---------------|---------------|
E:|3-3-3-3-3-3-3-3|3-3-3-3-3-3-3-3|
   1 - 2 - 3 - 4 - 1 - 2 - 3 - 4 -

G:|---------------|---------------|
D:|---------------|---------------|
A:|3-3-3-3-3-3-3-3|3-3-3-3-3-3-3-3|
E:|---------------|---------------|
   1 - 2 - 3 - 4 - 1 - 2 - 3 - 4 -

G:|---------------|---------------|
D:|---------------|---------------|
A:|0-0-0-0-0-0-0-0|2-2-2-2-2-2-2-2|
E:|---------------|---------------|
   1 - 2 - 3 - 4 - 1 - 2 - 3 - 4 -

G:|---------------|---------------|
D:|---------------|---------------|
A:|3-3-3-3-3-3-3-3|5-5-5-5-5-5-5-5|
E:|---------------|---------------|
   1 - 2 - 3 - 4 - 1 - 2 - 3 - 4 - 
   
G:|---------------|---------------|
D:|---------------|---------------|
A:|---------------|---------------|
E:|3-3-3-3-3-3-3-3|3-3-3-3-3-3-3-3|
   1 - 2 - 3 - 4 - 1 - 2 - 3 - 4 -

G:|---------------|---------------|
D:|---------------|---------------|
A:|3-3-3-3-3-3-3-3|3-3-3-3-3-3-3-3|
E:|---------------|---------------|
   1 - 2 - 3 - 4 - 1 - 2 - 3 - 4 -

G:|---------------|---------------|
D:|---------------|---------------|
A:|0-0-0-0-0-0-0-0|5~~~~~~~~~~~~~~|
E:|---------------|---------------|
   1 - 2 - 3 - 4 - 1 - 2 - 3 - 4 -
   
Interlude:
G:|---------------|---------------|
D:|---------------|---------------|
A:|---------------|---------------| x2
E:|3~~~~~~~~~~~~~~|~~~~~~~~~~~~~~~|
   1 - 2 - 3 - 4 - 1 - 2 - 3 - 4 -

Verse:
G:|---------------|                 
D:|---------------|                  
A:|---------------| (Hold for 4 bars)
E:|3~~~~~~~~~~~~~~|                  
   1 - 2 - 3 - 4 -                   
                                     
G:|---------------|---------------|   
D:|---------------|---------------|   
A:|3~~~~~~~~~~~~~~|~~~~~~~~~~~~~~~| x2
E:|---------------|---------------| 
   1 - 2 - 3 - 4 - 1 - 2 - 3 - 4 -  
                                    
G:|---------------|---------------| 
D:|---------------|---------------| 
A:|0~~~~~~~~~~~~~~|2~~~~~~~~~~~~~~| 
E:|---------------|---------------| 
   1 - 2 - 3 - 4 - 1 - 2 - 3 - 4 -  
                                    
G:|---------------|---------------| 
D:|---------------|---------------| 
A:|3~~~~~~~~~~~~~~|~~~~~~~~~~~~~~~| 
E:|---------------|---------------| 
   1 - 2 - 3 - 4 - 1 - 2 - 3 - 4 -    

Chorus:
G:|---------------|---------------|
D:|---------------|---------------|
A:|---------------|---------------|
E:|3-3-3-3-3-3-3-3|3-3-3-3-3-3-3-3|
   1 - 2 - 3 - 4 - 1 - 2 - 3 - 4 -

G:|---------------|---------------|
D:|---------------|---------------|
A:|3-3-3-3-3-3-3-3|3-3-3-3-3-3-3-3|
E:|---------------|---------------|
   1 - 2 - 3 - 4 - 1 - 2 - 3 - 4 -

G:|---------------|---------------|
D:|---------------|---------------|
A:|0-0-0-0-0-0-0-0|2-2-2-2-2-2-2-2|
E:|---------------|---------------|
   1 - 2 - 3 - 4 - 1 - 2 - 3 - 4 -

G:|---------------|---------------|
D:|---------------|---------------|
A:|3-3-3-3-3-3-3-3|5-5-5-5-5-5-5-5|
E:|---------------|---------------|
   1 - 2 - 3 - 4 - 1 - 2 - 3 - 4 - 
   
G:|---------------|---------------|
D:|---------------|---------------|
A:|---------------|---------------|
E:|3-3-3-3-3-3-3-3|3-3-3-3-3-3-3-3|
   1 - 2 - 3 - 4 - 1 - 2 - 3 - 4 -

G:|---------------|---------------|
D:|---------------|---------------|
A:|3-3-3-3-3-3-3-3|3-3-3-3-3-3-3-3|
E:|---------------|---------------|
   1 - 2 - 3 - 4 - 1 - 2 - 3 - 4 -

Break: (At the end of chorus)
    journey     be-gin         Pokemon!
G:|---------------|---------------|---------------|
D:|---------------|---------------|---------------|
A:|0-0-0-0-0-0-0-0|5~~~~~~~~~~~---|---------------|
E:|---------------|------------3-3|3--------------|
   1 - 2 - 3 - 4 - 1 - 2 - 3 - 4 - 1 - 2 - 3 - 4 -

Solo/Bridge
G:|---------------|---------------|
D:|---------------|---------------|
A:|---------------|---------------|
E:|3--------------|---------------|
   1 - 2 - 3 - 4 - 1 - 2 - 3 - 4 -

G:|---------------|---------------|
D:|---------------|---------------|
A:|3~~~~~~~~~~~~~~~~~~~~~~~~~~~~~~|
E:|---------------|---------------|
   1 - 2 - 3 - 4 - 1 - 2 - 3 - 4 -

G:|---------------|---------------|
D:|---------------|---------------|
A:|3\0-0-0-0-0-0-0|2-2-2-2-2-2-2-2|
E:|---------------|---------------|
   1 - 2 - 3 - 4 - 1 - 2 - 3 - 4 - 
   
G:|---------------|---------------|
D:|---------------|---------------|
A:|3-3-3-3-3-3-3-3|5-5-5-5-5-5-5-5|
E:|---------------|---------------|
   1 - 2 - 3 - 4 - 1 - 2 - 3 - 4 -
   
Chorus:
G:|---------------|---------------|
D:|---------------|---------------|
A:|---------------|---------------|
E:|3-3-3-3-3-3-3-3|3-3-3-3-3-3-3-3|
   1 - 2 - 3 - 4 - 1 - 2 - 3 - 4 -

G:|---------------|---------------|
D:|---------------|---------------|
A:|3-3-3-3-3-3-3-3|3-3-3-3-3-3-3-3|
E:|---------------|---------------|
   1 - 2 - 3 - 4 - 1 - 2 - 3 - 4 -

G:|---------------|---------------|
D:|---------------|---------------|
A:|0-0-0-0-0-0-0-0|2-2-2-2-2-2-2-2|
E:|---------------|---------------|
   1 - 2 - 3 - 4 - 1 - 2 - 3 - 4 -

G:|---------------|---------------|
D:|---------------|---------------|
A:|3-3-3-3-3-3-3-3|5-5-5-5-5-5-5-5|
E:|---------------|---------------|
   1 - 2 - 3 - 4 - 1 - 2 - 3 - 4 - 
   
G:|---------------|---------------|
D:|---------------|---------------|
A:|---------------|---------------|
E:|3-3-3-3-3-3-3-3|3-3-3-3-3-3-3-3|
   1 - 2 - 3 - 4 - 1 - 2 - 3 - 4 -

G:|---------------|---------------|
D:|---------------|---------------|
A:|3-3-3-3-3-3-3-3|3-3-3-3-3-3-3-3|
E:|---------------|---------------|
   1 - 2 - 3 - 4 - 1 - 2 - 3 - 4 -

Break: (At the end of chorus)
    journey     be-gin         Pokemon!
G:|---------------|---------------|---------------|
D:|---------------|---------------|---------------|
A:|0-0-0-0-0-0-0-0|5~~~~~~~~~~~---|---------------|
E:|---------------|------------3-3|3--------------|
   1 - 2 - 3 - 4 - 1 - 2 - 3 - 4 - 1 - 2 - 3 - 4 -
Добавлено: 24.10.2013
Другие материалы по этой песне:
  • Аккорды и текст

Страница создана 24.10.2013
http://primanota.ru/misc-soundtrack/pokemon-black-and-white-theme-chords.htm
Привет, Гость.
Предлагаем пройти революционный курс по гитаре.
Подарок от PrimaNota.Ru, забирай!