PrimaNota.ru - самый крупный в мире бесплатный архив песенных текстов, аккордов, табулатур и нот


Misc Soundtrack - Home Alone - Somewhere In My Memory - таба

Регистрация Запомнить меня
Войти через:  Facebook Google Twitter Vk Yandex Mail.ru

Misc Soundtrack - Home Alone - Somewhere In My Memory - таба

Печатать
Просмотров: 289
Artist: John Williams
Song: Somewhere In My Memory (Home Alone Theme)
Tabbed by: Brian Wallenstein
Email: wallensteinb@wit.edu

Tuning: Standard (EADGBe)
Capo: 7th Fret

Chords:

G: 320033
Cadd9: 032033
C 032010
Am: 002210
A: 002220
F#sus4: 000452
D: 000232

I couldn't find a fingerpicking tab or chord sheet for this song anywhere so I decided 
write this tab by listening to the song. Feel free to add any hammer-ons or other effects 
you wish :) Enjoy!

        G               Cadd9                       C
----------------- -3--------------- -0-3------------------------------|
-3---0---3---0--- ---------3------- -----1---0-3-----0----------------|
---0---0---0---0- ---0---0---0---0- -------0-----0-----0---0-2--------|
----------------- -----2-------2--- ---------------2-----2-----0---0--|
---------2------- -3-------3------- -3-------3-------3-------0---0----|
-3--------------- ----------------- ----------------------------------|

----------------- -3--------------- -----0----------------------------|
-3---0---3---0--- ---------3------- --------3-----1-0-----0h1---------|
---0---0---0---0- ---0---0---0---0- -0----0---0-------0-------2-------|
----------------- -----2-------2--- ---2--------2-------2-------0---0-|
---------2------- -3-------3------- -3------3-------3---------0---0---|
-3--------------- ----------------- ----------------------------------|

----------------- -3--------------- -0-3------------------------------|
-3---0---3---0--- ---------3------- -----1---0-3-----0----------------|
---0---0---0---0- ---0---0---0---0- -------0-----0-----0---0-2--------|
----------------- -----2-------2--- ---------------2-----2-----0---0--|
---------2------- -3-------3------- -3-------3-------3-------0---0----|
-3--------------- ----------------- ----------------------------------|

    G        Am          A            F#sus4           D
-------------------------0---------------2-----------2---3------------|
-----0---1-----------2-------3-------5-------5---------3---3----------|
-------0-----2-----2---2---2---2---4---4---4---4---2---------2--------|
---0-------2---2-----------------0---------------0-------------0------|
---------0-------0----------------------------------------------------|
-3--------------------------------------------------------------------|

        G               Cadd9                  Cadd9
----------------- -3--------------- -----0h2-3-----------------|
-3---0---3---0--- ---------3------- -----------3---0---1-0-----|
---0---0---0---0- ---0---0---0---0- -------------0---0-----2---|
----------------- -----2-------2--- ---2---------------------0-|
---------2------- -3-------3------- -3-------------------------|
-3--------------- ----------------- ---------------------------|

       G
--------------3-|
--------------3-|
-0----------0---|
---0---0---0----|
-----2----2-----|
-3-------3------|

Lyrics:

Candles in the window
shadows painting the ceiling
gazing at the fire glow
feeling that gingerbread feeling
precious moments, special people
happy faces I can see
somewhere in my memory
Christmas joys all around me
living in my memory
all of the music
all of the magic
all of the family home here with me
Добавлено: 09.05.2012
Другие материалы по этой песне:
  • Аккорды и текст

Страница создана 09.05.2012
http://primanota.ru/misc-soundtrack/home-alone-somewhere-in-my-memory-chords.htm
Привет, Гость.
Предлагаем пройти революционный курс по гитаре.
Подарок от PrimaNota.Ru, забирай!