PrimaNota.ru - самый крупный в мире бесплатный архив песенных текстов, аккордов, табулатур и нот


Misc Soundtrack - Dark Cloud Ost - Memories - таба, видео

Регистрация Запомнить меня
Войти через:  Facebook Google Twitter Vk Yandex Mail.ru

Misc Soundtrack - Dark Cloud Ost - Memories - таба, видео

Печатать
Просмотров: 183
Уроки эстрадного вокала в Санкт-Петербурге
-------------------------------------------------------------------------------
                             Memories - Dark Cloud Ost
-------------------------------------------------------------------------------

Tuning: Standard


Rhythm


e|-----------------|----------------3-|----------------|--------------------|
B|-------6---------|-------6----------|-------6--------|-------6------------|
G|-----5--------3--|-----5--------3---|-----5--------3-|-----5---8----------|
D|---6--------5----|---6--------5-----|---6--------5---|---6-------8--------|
A|-8--------6------|-8--------6-------|-8--------6-----|-8-----------11-10--|
E|-----------------|------------------|----------------|--------------------|

e|-----------------|----------------3-|----------------|------------------|
B|-------6---------|-------6----------|-------6--------|------------------|
G|-----5--------3--|-----5--------3---|-----5--------3-|------------------|
D|---6--------5----|---6--------5-----|---6--------5---|-3---5-6-3---6-5-3|
A|-8--------6------|-8--------6-------|-8--------6-----|---3-------3------|
E|-----------------|------------------|----------------|-------------4-3-1|

e|-------------------|----------------------|--------------------|------------------|
B|-------------------|----------------------|--------------------|------------------|
G|-----10-8------5-8-|-----10-8-------------|-------6--8---------|-----8-8--3-------|
D|---6---------6-----|---6-------8----------|---3--------8-------|---8--8-----6-5---|
A|-8---------8-------|-8-----------11-10-11-|-4------------11-10-|-6--------------6-|
E|-------------------|----------------------|--------------------|------------------|

e|-------------------|----------------------|--------------------|------------------|
B|-------------------|----------------------|--------------------|------------------|
G|-----10-8------5-8-|-----10-8-------------|-------6--8---------|-----5-8----------|
D|---6---------6-----|---6-------8----------|---3--------8-------|---6------8-6-5-6-|
A|-8---------8-------|-8-----------11-10-11-|-4------------11-10-|-8----------------|
E|-------------------|----------------------|--------------------|------------------|


Lead


e|------------|-------------|------------|-------|
B|------------|-------------|------------|-------|
G|------------|-----5-3h5p3-|------------|-------|
D|-6---6-5----|-3-----------|-5-6--6-5---|-------|
A|----------6-|-------------|----------6-|-3h4p3-|
E|------------|-------------|------------|-------|

e|------------|---------|-----------------|------------|
B|------------|---------|-----------------|------------|
G|------------|-----5-5-|-----------------|------------|
D|-6---6-5----|---------|-5-8--6-5h6p5----|--------1-3-|
A|----------6-|-8-------|---------------6-|-8----3-----|
E|------------|---------|-----------------|------------|

e|-------------|----------|------------------|-----------|
B|-------------|----------|------------------|-----------|
G|-------------|---8---5--|-5-3-5-5----------|-3---3-3---|
D|-1-3---6-5-6-|-8---8----|---------3-5-6-5--|---6-------|
A|-------------|----------|------------------|---------6-|
E|-------------|----------|------------------|-----------|

e|-------------|----------|------------------|----------|
B|-------------|----------|------------------|----------|
G|-------------|---8---5--|-5-3-5-5----------|-----3----|
D|-1-3---6-5-6-|-8---8----|---------3-5-6-5--|-5-6---5--|
A|-------------|----------|------------------|---------3|
E|-------------|----------|------------------|----------|

| /  slide up
| \  slide down
| h  hammer-on
| p  pull-off
| ~  vibrato
| +  harmonic
| x  Mute note
===============================================================================
Добавлено: 05.07.2012
Другие материалы по этой песне:
  • Аккорды и текст

Страница создана 05.07.2012
http://primanota.ru/misc-soundtrack/dark-cloud-ost-memories-chords.htm
Привет, Гость.
Предлагаем пройти революционный курс по гитаре.
Подарок от PrimaNota.Ru, забирай!