PrimaNota.ru - самый крупный в мире бесплатный архив песенных текстов, аккордов, табулатур и нот


Misc Children - Pa Ett Berg - таба, видео

Регистрация Запомнить меня
Войти через:  Facebook Google Twitter Vk Yandex Mail.ru

Misc Children - Pa Ett Berg - таба, видео

Печатать
Просмотров: 82
_____________________________________
-|Song: På ett berg                |-
-|Tabbed by: Kenny Hurtig          |-
-|Tuning: Standard                 |-
-|Email: Kenlolsgaming@hotmail.com |-
_|_________________________________|_


                              På ett berg


  (D)       (A)  (Bm)       (Fm)     (G)        (D)   (G)        (Asus)
E------2-3-0-------------2---------------------------2-------------------0---|
B------------2---------------------2--------3------3------------3------3-----|
G----2---------2-------4---------2---------------2-------------------2-------|
D--0-------------2---4---------4---------0----0---------------0----2---------|
A------------------2---------4---------2-------------------2-------0---------|
E------------------------------------3-----------------3---------------------|

  (D)       (A)  (Bm)       (Fm)     (G)        (D)   (G)        (Asus)
E------2-3-0-------------2---------------------------2-------------------0---|
B------------2---------------------2--------3------3------------3------3-----|
G----2---------2-------4---------2---------------2-------------------2-------|
D--0-------------2---4---------4---------0----0---------------0----2---------|
A------------------2---------4---------2-------------------2-------0---------|
E------------------------------------3-----------------3---------------------|


D, A, Bm, F#m, G, D, G, Asus...


     D              A
Jag sitter på ett berg

     Bm             Fm
när solen just gått ner

     G              D
en röd-gul vacker färg

     G             Asus
så långt som ögat ser

     D              A
och vinden är så varm

     Bm             Fm
den fläktar på min arm

     G              D
jag önskar inget mer

     G      Asus    D
än det jag just nu ser...


        A
på ett berg

     Bm             Fm
när solen just gått ner

     G              D
en röd-gul vacker färg

     G             Asus
så långt som ögat ser

     D              A
och vinden är så varm

     Bm             Fm
den fläktar på min arm

     G              D
jag önskar inget mer

     G      Asus    D
än det jag just nu ser
Добавлено: 11.11.2013
Другие материалы по этой песне:
  • Аккорды и текст

Страница создана 11.11.2013
http://primanota.ru/misc-children/pa-ett-berg-chords.htm
Привет, Гость.
Предлагаем пройти революционный курс по гитаре.
Подарок от PrimaNota.Ru, забирай!