PrimaNota.ru - самый крупный в мире бесплатный архив песенных текстов, аккордов, табулатур и нот


Misc Children - Frere Jacque - таба, видео

Регистрация Запомнить меня
Войти через:  Facebook Google Twitter Vk Yandex Mail.ru

Misc Children - Frere Jacque - таба, видео

Печатать
Просмотров: 146
Title: Frere Jacque
Author: Unknown, Public Domain


A simple song I figured out while first learning guitar.  Didn't see
anything in
the children's section so I thought I'd contribute something.  Enjoy  : )


E ---------0-------|---------0-------|
B -1---3-------1---|-1---3-------1---|
G -----------------|-----------------|
D -----------------|-----------------|
A -----------------|-----------------|
E -----------------|-----------------|
   1 . 2 . 3 . 4 .   1 . 2 . 3 . 4 .

   Fre-re  Jac-que   Fre-re  Jac-que



E -0---1---3-------|-0---1---3-------|
B -----------------|-----------------|
G -----------------|-----------------|
D -----------------|-----------------|
A -----------------|-----------------|
E -----------------|-----------------|
   1 . 2 . 3 . 4 .   1 . 2 . 3 . 4 .

   Dor-mez-vous-     Dor-mez-vous-



E -3---5---3---1------------------|
B -----------------3------1-------|
G --------------------------------|
D --------------------------------|
A --------------------------------|
E --------------------------------|
   1   .   2   .   3   .  4   . 

   Son-nez les mon-ti  -  na  -



E -3---5---3---1------------------|
B -----------------3------1-------|
G --------------------------------|
D --------------------------------|
A --------------------------------|
E --------------------------------|
   1   .   2   .   3   .  4   . 

   Son-nez les mon-ti  -  na  -



E --------------------------------|
B -1---------------1--------------|
G ---------0----------------------|
D --------------------------------|
A --------------------------------|
E --------------------------------|
   1   .   2   .   3   .  4   . 

   Ding,   dang,   dong



E --------------------------------|
B -1---------------1--------------|
G ---------0----------------------|
D --------------------------------|
A --------------------------------|
E --------------------------------|
   1   .   2   .   3   .  4   . 

   Ding,   dang,   dong


#---------------------------------------------------------------------------
#  JJ Chandler           chandl15@msu.edu           Michigan State University  
#            Check out my home page at http://www.jjchandler.com/
     
Добавлено: 09.11.2013
Другие материалы по этой песне:
  • Аккорды и текст

Страница создана 09.11.2013
http://primanota.ru/misc-children/frere-jacque-chords.htm
Привет, Гость.
Предлагаем пройти революционный курс по гитаре.
Подарок от PrimaNota.Ru, забирай!