PrimaNota.ru - самый крупный в мире бесплатный архив песенных текстов, аккордов, табулатур и нот


Misc Cartoons - Digimon Adventure 02 - Target Akai Shougeki - таба

Регистрация Запомнить меня
Войти через:  Facebook Google Twitter Vk Yandex Mail.ru

Misc Cartoons - Digimon Adventure 02 - Target Akai Shougeki - таба

Печатать
Просмотров: 107
Intro:
e|--------------------------------------------|    |--------|
B|--10------11--10------8---------------/13---|    |--------|
G|--------------------------10---9------------|X2  |--7--7--|
D|--------------------------------------------|    |--7--7--|
A|--------------------------------------------|    |--5--5--|
E|--------------------------------------------|    |--------|



Verse/Estrofa:
e|------------------------------------------------------|-------------------------------------|
B|------------------------------------------------------|-------------------------------------|
G|--7--7--7--5--5--------5--8--7--5--3--3--5-----3--5---|--7--7--7--5--5---------------3------|
D|-----------------3--------------------------5---------|-----------------3------3--5-----5---|
A|------------------------------------------------------|-------------------------------------|
E|------------------------------------------------------|-------------------------------------|

e|------------------------------------------------------|--------------------------------------|
B|------------------------------------------------------|-----------6--------------------------|
G|--7--7--7--5--5--------5--8--7--5--3--3--5-----3--5---|--7--7--7-----7--5--5--7--------------|
D|-----------------3--------------------------5---------|-----------------------------8--5--5--|
A|------------------------------------------------------|--------------------------------------|
E|------------------------------------------------------|--------------------------------------|

e|----------------------------------------|
B|---------------------------------6------|
G|-----------7--5------5--5--5--5---------|
D|--5--5--5---------------------------8---|
A|----------------------------------------|
E|----------------------------------------|

e|-------------------------------------------------------------|---------------------------|
B|--------------6----------------------6-----------------------|---------------------------|
G|--5--5--8--5-----8-------8--8--7--8-----8----8--7--8--7--7---|--7--7--7----5/7--7--7--7--|
D|-------------------------------------------------------------|--7--7--7----5/7--7--7--7--|
A|-------------------------------------------------------------|--5--5--5----3/5--5--5--5--|
E|-------------------------------------------------------------|---------------------------|



Chorus/Estribillo:
e|-----------------------------|---------------------------|
B|-----6-----8--8--6-----------|---------------------------|
G|--7-----7-----------7--5--7--|-----5--7--5--5------------|
D|-----------------------------|--8--------------8--8--5---|
A|-----------------------------|---------------------------|
E|-----------------------------|---------------------------|

e|-----------------------------|---------------------------------|
B|-----6-----8--8--6-----------|-----------------------------8---|
G|--7-----7-----------7--5--7--|-----5--7--5-----5-----5--7------|
D|-----------------------------|--8-----------8-----8------------|
A|-----------------------------|---------------------------------|
E|-----------------------------|---------------------------------|

e|-----------------------------|---------------------------|
B|-----6-----8--8--6-----------|---------------------------|
G|--7-----7-----------7--5--7--|-----5--7--5--5------------|
D|-----------------------------|--8--------------8--8--5---|
A|-----------------------------|---------------------------|
E|-----------------------------|---------------------------|

e|-----------------------------|---------------------------------|
B|-----6-----8--8--6-----------|-----------------------------8---|
G|--7-----7-----------7--5--7--|-----5--7--5-----5-----5--7------|
D|-----------------------------|--8-----------8-----8------------|
A|-----------------------------|---------------------------------|
E|-----------------------------|---------------------------------|

e|-----------------------------------------------------------|
B|--8--6-----8--6-----8--6--8/10--11--10----8----------/13---|
G|--------7--------7---------------------------10--9---------|
D|-----------------------------------------------------------|
A|-----------------------------------------------------------|
E|-----------------------------------------------------------|

Tabs by Fefe - Tron544
Добавлено: 02.12.2013
Другие материалы по этой песне:
  • Аккорды и текст

Страница создана 02.12.2013
http://primanota.ru/misc-cartoons/digimon-adventure-02-target-akai-shougeki-chords.htm
Привет, Гость.
Предлагаем пройти революционный курс по гитаре.
Подарок от PrimaNota.Ru, забирай!