PrimaNota.ru - самый крупный в мире бесплатный архив песенных текстов, аккордов, табулатур и нот


Misc Cartoons - Friendship Is Witchcraft - Itll Be Ok - таба, видео

Регистрация Запомнить меня
Войти через:  Facebook Google Twitter Vk Yandex Mail.ru

Misc Cartoons - Friendship Is Witchcraft - Itll Be Ok - таба, видео

Печатать
Просмотров: 331
"It'll be OK" from Friendship is Witchcraft 8

Original song - http://www.youtube.com/watch?v=MpE0ZY8FODk

Tabbed by Grue3

(Please transpose the entire song several frets down or up as needed,
 if you can't sing it in the original key! I tabbed it in the middle
 of fretboard for this exact purpose.)

Intro

Original version:
E|-------1412------------12-----------------------------------------|
B|-----12----12--1214------1412-------------------------------------|
G|---13--------13------13------13--------13--------------1413----11-|
D|-14----------------14----------14161416--1614--------14------13---|
A|---------------------------------------------16141216------14-----|
E|------------------------------------------------------------------|

One octave lower version:
E|------------------------------------------------------------------|
B|----64------4-----------------------------------------------------|
G|---3--3-35---53---------------------------------------------------|
D|--5----5---5---5-3-353------65--3---------------------------------|
A|-6--------6-----6-6---63--36---5----------------------------------|
E|------------------------64----6-----------------------------------|

Chorus 1
  2x
E|-------------------------------|---------------------------|
B|--8------4------9--------------|--8------------------------|
G|--8------5------10-----5---7---|--8------------------------|
D|--8------5------10-----6---8---|--8------------------------|
A|--6------3------8------6---8---|--6----666666666-----------|
E|-----------------------4---6---|---------------------------|

Verse 1

E|------------------------------------------------------------------|
B|------------------------------------------------------------------|
G|------------------------------------------------------------------|
D|--5-5-5-5-5-5-5-5-----------------1-1-1-1-1-1-1-1-----------------|
A|-6-6-6-6-6-6-6-6--2-2-2-2-2-2-2-23-3-3-3-3-3-3-3--3-3-3-3-5-------|
E|-----------------3-3-3-3-3-3-3-3-----------------4-4-4-4--6-------|

E|----------------------------------------------------------------------|
B|----------------------------------------------------------------------|
G|----------------------------------------------------------------------|
D|--5-5-5-5-5-5-5-5-----------------1-1-1-1-1-1-1-1------------5-5-5-5--|
A|-6-6-6-6-6-6-6-6--2-2-2-2-2-2-2-23-3-3-3-3-3-3-3--33---55---6-6-6-6-6-|
E|-----------------3-3-3-3-3-3-3-3------------------44---66-------------|

Verse 2

* = play octaves if single notes sound too boring

E|----------------------------------------------------------|
B|----------------------------------------------------------|
G|---8--8--8--8--------------5--5--5--5--------10*-8*-------|
D|---8--8--8--8--5--5--5--5--5--5--5--5-10--8---------------|
A|-xx6xx6xx6xx6--5--5--5--5xx3xx3xx3xx3--------8---6--------|
E|-------------xx3xx3xx3xx3-------------8*--6*--------------|

(this part isn't even played on guitar, so just play the chords)
E|----------------------------------------------------------|
B|----------------------------------------------------------|
G|-8-------------5------------------------------------------|
D|-8------5------5------66--88------------------------------|
A|-6------5------3------66--88------------------------------|
E|--------3-------------44--66------------------------------|

Chorus 2

E|-----------------------------------------------------------|
B|-----------------------------------------------------------|
G|--8------5------10-------------8--------------10*-8*-------|
D|--8------5------10-----6---8---8------10--8----------------|
A|--6------3------8------6---8---6--------------8---6--------|
E|-----------------------4---6----------8*--6*---------------|


E|----------------------------------------------------------|
B|------------------------------------64--------------------|
G|--10-------------------------------3--3-35----------------|
D|--10-----6---8---6---8---6---8----5----5------------------|
A|--8------6---8---6---8---6---8---6------------------------|
E|---------4---6---4---6---4---6----------------------------|

Outro
(same as intro, or play these chords)

E|------------------3---------------------------------------|
B|--9---------------4---------------------------------------|
G|--10-----5---7----3---------------------------------------|
D|--10-----6---8----5---------------------------------------|
A|--8------6---8----6---------------------------------------|
E|---------4---6--------------------------------------------|
Добавлено: 18.10.2013
Другие материалы по этой песне:
  • Аккорды и текст

Страница создана 18.10.2013
http://primanota.ru/misc-cartoons/friendship-is-witchcraft-itll-be-ok-chords.htm
Привет, Гость.
Предлагаем пройти революционный курс по гитаре.
Подарок от PrimaNota.Ru, забирай!