PrimaNota.ru - самый крупный в мире бесплатный архив песенных текстов, аккордов, табулатур и нот


Mirah - The Garden - текст песни, таба, видео

Регистрация Запомнить меня
Войти через:  Facebook Google Twitter Vk Yandex Mail.ru

Mirah - The Garden - текст песни, таба, видео

Печатать
Просмотров: 206
This is a simple tab/chord setting for Mirah's "The Garden" with strums and arpeggios 
during the repeated section.  Enjoy!

No Capo... just Em and B7 all the way through.  Feel free to get a crazy percussionist 
to join you to spice things up.

Intro:  Play until the word *bring* -- then switch to chord strums.  I slapped the 
guitar for effect on beats 2 and 4, but left off 4 before *bring*.

E-----------------------------------------------------|
B-----------------------------------------------------|
G-----------------------------------------------------|
D-----------------------------------------------------|
A----------------------------2--*slap*--2-2--*slap*---|
E----0--*slap*--0-0--*slap*---------------------------|


   Em
Oh oh...

                     B7
I really wanted that thing

               Em
I just want to sing

           B7             Em
I love you baby won't you *bring*

                B7
All the flowers you

                Em
Find out in the garden?

                  B7
Don't tell me the truth

                    Em
That your heart has hardened.



Repeated Section:  Start the Em arpeggio on *you* and play all eighth notes.  Start the 
B7 arpeggio on *anymore* and play all eighth notes.  Strum again on *can*

E------------0----------------2----|
B------0----------------0----------|
G--------0----------------2--------|
D----------2----------------1------|
A---------------------2------------|
E----0-----------------------------|

     Em                  B7             Em
But *you* don't love me *anymore*--how *can* it be?


Additional Bass:  Play quarter notes over *done to me*.  Then switch back to strums.

            E-------------------|
            B-------------------|
            G-------------------|
            D-------------------|
            A----2--3--2--0-----|
            E-------------------|

                 B7
Look what you've done to me

   Em
Oh oh...

   Em
Oh oh...

                     B7
The bee does quickly sting.

      Em
I was wondering

             B7            Em
If you could maybe darling think?

         B7
I'd give everything

                         Em
If you'd grant my love a pardon

                 B7
And then all the fruits

                     Em
Again would fill the garden.


E------------0----------------2----|
B------0----------------0----------|
G--------0----------------2--------|
D----------2----------------1------|
A---------------------2------------|
E----0-----------------------------|

    Em                B7           Em
But you don't want me anymore--how can it be?


            E-------------------|
            B-------------------|
            G-------------------|
            D-------------------|
            A----2--3--2--0-----|
            E-------------------|

                 B7
Look what you've done to me

   Em
Oh oh...

   B7           Em
Oh oh...  oh oh oh...
Добавлено: 02.12.2013
Другие материалы по этой песне:
  • Аккорды и текст

Страница создана 14.07.2012
http://primanota.ru/mirah/the-garden-chords.htm
Привет, Гость.
Предлагаем пройти революционный курс по гитаре.
Подарок от PrimaNota.Ru, забирай!