PrimaNota.ru - самый крупный в мире бесплатный архив песенных текстов, аккордов, табулатур и нот


Miracle Of Sound - Ironskin - таба, видео

Регистрация Запомнить меня
Войти через:  Facebook Google Twitter Vk Yandex Mail.ru

Miracle Of Sound - Ironskin - таба, видео

Печатать
Просмотров: 91
-------------------------------------------------------------------------------
                             IRONSKIN - Miracle of Sound
-------------------------------------------------------------------------------
Tabbed by: Excalibur

Tuning:Drop D

e|-----------------------------------------------------------------------------------------|
B|-----------------------------------------------------------------------------------------|
G|-----------------------------------------------------------------------------------------|
D|----5/--7--------------------------------------5/--77---------------------3--5bu6bd5-----|
A|----3/--5-------7---6--XXX------3/--5----------3/--55------7---6----3--5-----------------|
D|----------------7---6--XXX------3/--5----------------------7---6-------------------------|

e|-----------------------------------------------------------------------------------------|
B|-----------------------------------------------------------------------------------------|
G|-----------------------------------------------------------------------------------------|
D|----5/--7--------------------------------------5/--77------------------------------------|
A|----3/--5-------7---6--XXX-------3/--5---------3/--55------7---6--------6-5-3-5-3---0----|
D|----------------7---6--XXX-------3/--5---------------------7---6--------6-5-3-5-3---0----|

e|-----------------------------------------------------------------------------------------|
B|-----------------------------------------------------------------------------------------|
G|-----------------------------------------------------------------------------------------|
D|-----------------------------------------------------------------------------------------|
A|----00-00-0----6-5-3-5-3---0--00-00-0----6-5-3-5-3-6-7--77-77-7----6-5-3-5-3-0--00-00-0--|
D|----00-00-0----6-5-3-5-3---0--00-00-0----6-5-3-5-3-6-7--77-77-7----6-5-3-5-3-0--00-00-0--|

e|-----------------------------------------------------------------------------------------|
B|-----------------------------------------------------------------------------------------|
G|-----------------------------------------------------------------------------------------|      x2
D|-----------------------------------------------------------------------------------------|
A|----6-5-3-5-3---0--00-00-0---------------------------------------------------------------|
E|----6-5-3-5-3---0--00-00-0---------------------------------------------------------------|

e|-----------------------------------------------------------------------------------------|
B|-----------------------------------------------------------------------------------------|
G|-----------------------------------------------------------------------------------------|
D|-----------------------------------------------------------------------------------------|
A|----6-5-3-5-3-6-7--77-77-7----6-5-3-5-3-0------------------------------------------------|
E|----6-5-3-5-3-6-7--77-77-7----6-5-3-5-3-0------------------------------------------------|



************************************

| /   slide up
| \   slide down
| x   Mute note
| bu  Bend up
| bd  Bend down

************************************
Добавлено: 11.04.2016
Другие материалы по этой песне:
  • Аккорды и текст

Страница создана 11.04.2016
http://primanota.ru/miracle-of-sound/ironskin-chords.htm
Привет, Гость.
Предлагаем пройти революционный курс по гитаре.
Подарок от PrimaNota.Ru, забирай!