PrimaNota.ru - самый крупный в мире бесплатный архив песенных текстов, аккордов, табулатур и нот


Ministry - Just One Fix - аккорды и текст, таба, видео

Регистрация Запомнить меня
Войти через:  Facebook Google Twitter Vk Yandex Mail.ru

Ministry - Just One Fix - аккорды и текст, таба, видео

Печатать
Просмотров: 383
Авторы: Ministry
Авторы текста: Ministry
Just One Fix
Ministry
		   Reply-me: si1g01@arenes.irit.fr

			" J U S T   O N E   F I X "  Ministry's Psalm_69 #2
			°°°°°°°°°°°°°°°°°°°°°°°°°°°
		Phil -==RzR==- Coval > si1g01@arenes.irit.fr   95

[INTRO] Samples (I think it's some french words)
	Drums ???

	Opening		                    Main Riff:
 A---8-8---8-8---8-8---8-8-- ||-3-----2------------|-7/5---8-------------||
 E---6-6---6-6---6-6---6-6-- ||-1-0-0-0-0--0-0-0-0-|-5/3-0-6-0--0-0-0-0--||

[FILL1]		The high part in the beginning: (w/ main riff x11)
 e|------------------------------------------------------------------------
 b|------------------------------------------------------------------------
 g|----------9--8~~--------9--8~~---------9--8--9~~~~~~~~~~~~~~~~~~~~~~~~~~
 D|-9--8~~----------9--8~~--------9--8~~-------------------------FeedBack--
 A|------------------------------------------------------------------------
 E|---------------|--------------|-------------|---|---|---|---|---|---|---

[VERSE1] (guitar play main riff x4)
	 blood keeps drinking away		certain of its destination
	 driving through new orleans at night	gotta find a destination
[CHORUS] main riff
 just one fix (one fix one fix one fix) x4
 just one fix
[FILL3]
 opening
 g--9~~~~feedback w/M riff

 main riff

[VERSE2]

 life keeps slipping away		fighting in a war with damnation
 poised, keep cutting away		I'm looking in through to salvation
[CHORUS]

[BRIDGE] 1st half is Main Riff played 8th notes    /    2d half  follows:

 A|-5-----5-----5-----4-----5---4---|-%(3x)-|-5-----5-----5---8-8-8-8-8-8-8-8
 E|-3-0-0-3-0-0-3-0-0-2-0-0-3-0-2-0-|-%(3x)-|-3-0-0-3-0-0-3-0-6-6-6-6-6-6-6-6

	just one fix

[FILL1] w/main riff

[FILL2] Slayer riff part: Repeat to the end (fade out)

 A||----------------------------------||----------------------------------------
 B||----------------------------------||----------------------------------------
 G||*------------0-9-0-8-0-7---------*||----------------------------------------
 D||*5--7---9----------------9-7-5---*||----------------------------------------
 A||--------------------------------7-||----------------------------------------
 E||----------------------------------||----------------------------------------


[VERSE3] w/ fill2 & main riff
 like if i boarded a train		trying to take in another station
 join us and the choice will be made	unless we kill the lie as a nation
[OUTRO] w/fill2 & main riff
 just one fix (one fix one fix)

_______________________________________________________________________________

				 NoTeS


        in the intro there's some ununderstandable words
	I think it's french sentencies Mais quoi donc ?

	What are all those sampled words ?

	That's the way I play it, it's hard to hear *exactly* what's going on

		This is the version 2 of j1f (lyrics added ...)
   ________________________________________________________________________
  /                                                                        \
 |                    @@@  CREDITS TO THIS TAB  @@@                         |
 |                                                               _    _     |
 | this tab:     PHILIPPE COVAL; si1g01@arenes.irit.fr ;1995     )\)(/(     |
 | lyrics:       Aaron Giles -- a-giles@uchicago.edu p>         /^^^^^^\    |
 | prev-tab:     gferg@hoop.csd.sgi.com (Greg Ferguson)                     |
 | Artist:       Ministry                                                   |
 | archive:      ftp://ftp.nevada.edu/pub/guitar/m/ministry/                |
  \________________________________________________________________________/


whoever you are, wherever you come you from, whatever you want,
 you ca     
Добавлено: 15.06.2013
Другие материалы по этой песне:

Страница создана 28.03.2012
http://primanota.ru/ministry/just-one-fix-chords.htm
Привет, Гость.
Предлагаем пройти революционный курс по гитаре.
Подарок от PrimaNota.Ru, забирай!