PrimaNota.ru - самый крупный в мире бесплатный архив песенных текстов, аккордов, табулатур и нот


Milo Greene - Dont You Give Up On Me - таба, видео

Регистрация Запомнить меня
Войти через:  Facebook Google Twitter Vk Yandex Mail.ru

Milo Greene - Dont You Give Up On Me - таба, видео

Печатать
Просмотров: 131
Уроки эстрадного вокала в Санкт-Петербурге
-------------------------------------------------------------------------------
                   Don't You Give Up On Me - Milo Greene
-------------------------------------------------------------------------------
Tabbed by: tdbucks
E-mail: tylerbeichler@gmail.com
Noticed this tab wasn't already on here so I thought I would post the easy part
for anyone who hadn't already figured it out. Open to any and all changes and/or
parts I got wrong.

Tuning:EADGBe
Guitar 1:
Intro:
e|---------------------------------------------------------------------------|
B|---------------------------------------------------------------------------|
G|----7-7-7-7-7-7-7-7-9-9-9-9-9-9-9-9-6-6-6-6-6-6-6-6-9-9-9-9-9-9-9-9--------|
D|---------------------------------------------------------------------------|
A|---------------------------------------------------------------------------|
E|---------------------------------------------------------------------------|
Intro (alternate):
e|---------------------------------------------------------------------------|
B|----3-3-3-3-3-3-3-3-5-5-5-5-5-5-5-5-2-2-2-2-2-2-2-2-5-5-5-5-5-5-5-5--------|
G|---------------------------------------------------------------------------|
D|---------------------------------------------------------------------------|
A|---------------------------------------------------------------------------|
E|---------------------------------------------------------------------------|
Guitar 2
e|---------9---------------7---------------7---------------12----------------|
B|----10-----10-------10-----10-------10-----10-------10------10-------------|
G|--9----9----------9----9----------9----9----------9----9-------------------|
D|---------------------------------------------------------------------------|
A|---------------------------------------------------------------------------|
E|---------------------------------------------------------------------------|

This is basically repeated through the entire intro and most of the song.
The second guitar eventually stops after the beginning.
Добавлено: 02.11.2015
Другие материалы по этой песне:
  • Аккорды и текст

Страница создана 02.11.2015
http://primanota.ru/milo-greene/dont-you-give-up-on-me-chords.htm
Привет, Гость.
Предлагаем пройти революционный курс по гитаре.
Подарок от PrimaNota.Ru, забирай!