PrimaNota.ru - самый крупный в мире бесплатный архив песенных текстов, аккордов, табулатур и нот


Miku Hatsune - Rolling Girl - текст песни, таба, видео

Регистрация Запомнить меня
Войти через:  Facebook Google Twitter Vk Yandex Mail.ru

Miku Hatsune - Rolling Girl - текст песни, таба, видео

Печатать
Просмотров: 1617
Новый альбом группы 'Черный Кузнец' по культовому сериалу 'Сверхъестественное'!
Rolling Girl

Standard Tuning

Intro/Keyboard Interlude (x6)

e|---------------------------------------------------10-10-----------|
B|-------------7---------------------------7-------------------------|
G|---7-7-6h7p6---9-9-7-7p6h7p6--7-7-6h7p7----9-9-7-7-----------------|
D|-------------------------------------------------------------------|
A|-------------------------------------------------------------------|
E|-------------------------------------------------------------------|

Verse 1 (Lonely girl wa itsumademo...)

e|-------------------------------------------------------------------|
B|-------------------------------------------------------------------|
G|---7-7-6--------------------7-6-7-9-7-7p6--------------------------|
D|---------7-9-7-4h7-------------------------------------------------|
A|--------------------5---4-5----------------------------------------|
E|-------------------------------------------------------------------|

e|-------------------------------------------------------------------|
B|------7------------------------------------------------------------|
G|---------9-7-7-6-6-6------------------------------7-7p6------------|
D|---7-----------------7-7---7-9-7------------9-7-7------------------|
A|----------------------------------5-5-5---5------------------------|
E|-------------------------------------------------------------------|

Keyboard Interlude (x2)

e|---------------------------------------------------10-10-----------|
B|-------------7---------------------------7-------------------------|
G|---7-7-6h7p6---9-9-7-7p6h7p6--7-7-6h7p7----9-9-7-7-----------------|
D|-------------------------------------------------------------------|
A|-------------------------------------------------------------------|
E|-------------------------------------------------------------------|

Verse 1 cont. (Mondainai...)

e|-------------------------------------------------------------------|
B|----------------------------------7--------------------------------|
G|---7-7-6--------------------7-6-7---9-7-7p6------------------------|
D|---------7-9-7-4h7--------------------------7----------------------|
A|--------------------5---4-5----------------------------------------|
E|-------------------------------------------------------------------|

e|-------------------------------------------------------------------|
B|-----------------------------------------------7---8-7-------------|
G|---7--------9p7--------7-7-7-7-7-7-7-7-7-9-7-----9-----------------|
D|-----7-7-7------7-7-7------------------------9----------9-9--------|
A|-------------------------------------------------------------------|
E|-------------------------------------------------------------------|

Chorus (Mou ikkai, mou ikkai...)

e|-------------------------------------------------------------------|
B|-----------------------------------7-7-----------------------------|
G|---7-7-7---6/7-7-7--7-7-7-7-7-7--9-----9-9-7-6---------------------|
D|-------------------------------------------------------------------|
A|-------------------------------------------------------------------|
E|-------------------------------------------------------------------|

e|----------------------------------------------11---11-11-11-11-11--|
B|-------------------------------------------------------------------|
G|-----11-11-9--9-7-7-11-11-9-9--7-7-7-7-7-7-7-----------------------|
D|---9---------------------------------------------------------------|
A|-------------------------------------------------------------------|
E|-------------------------------------------------------------------|

e|-------------------------------------------------------------------|
B|-----------7--------------------------7-7--------------------------|
G|---7-7-7-----9--7p6h7---7-7-7-7-7-7-9-----9-9-7-6------------------|
D|-------------------------------------------------------------------|
A|-------------------------------------------------------------------|
E|-------------------------------------------------------------------|

e|-------------------------------------------------------------------|
B|-----7-------------------------------------------------------------|
G|-------9-7-7-9p7-7-9-7---------------------------------------------| 
D|---9---------------------------------------------------------------|
A|-------------------------------------------------------------------|
E|-------------------------------------------------------------------|

Keyboard Interlude (x2)

e|---------------------------------------------------10-10-----------|
B|-------------7---------------------------7-------------------------|
G|---7-7-6h7p6---9-9-7-7p6h7p6--7-7-6h7p7----9-9-7-7-----------------|
D|-------------------------------------------------------------------|
A|-------------------------------------------------------------------|
E|-------------------------------------------------------------------|

Verse 2 (Rolling girl no name no hate...)

e|-------------------------------------------------------------------|
B|-------------------------------------------------------------------|
G|---7-7-6--------------------7-6-7-9-7-7p6--------------------------|
D|---------7-9-7-4h7-------------------------------------------------|
A|--------------------5---4-5----------------------------------------|
E|-------------------------------------------------------------------|

e|-------------------------------------------------------------------|
B|------7------------------------------------------------------------|
G|---------9-7-7-6-6-6------------------------------7-7p6------------|
D|---7-----------------7-7---7-9-7------------9-7-7------------------|
A|----------------------------------5-5-5---5------------------------|
E|-------------------------------------------------------------------|

e|-------------------------------------------------------------------|
B|----------------------------------7--------------------------------|
G|---7-7-6--------------------7-6-7---9-7-7p6------------------------|
D|---------7-9-7-4h7--------------------------7----------------------|
A|--------------------5---4-5----------------------------------------|
E|-------------------------------------------------------------------|

e|-------------------------------------------------------------------|
B|-----------------------------------------------7---8-7---11-11-----|
G|---7--------9p7--------7-7-7-7-7-7-7-7-7-9-7-----9-----------------|
D|-----7-7-7------7-7-7------------------------9---------------------|
A|-------------------------------------------------------------------|
E|-------------------------------------------------------------------|

Chorus II (Mou ikkai, mou ikkai...)

e|-------------------------------------------------------------------|
B|-----------------------------------7-7-----------------------------|
G|---7-7-7---6/7-7-7---7-7-7-7-7-7-9-----9-9-7-6---------------------|
D|-------------------------------------------------------------------|
A|-------------------------------------------------------------------|
E|-------------------------------------------------------------------|

e|----------------------------------------------11---11-11-11-11-11--|
B|-------------------------------------------------------------------|
G|-----11-11-9--9-7-7-11-11-9-9--7-7-7-7-7-7-7-----------------------|
D|---9---------------------------------------------------------------|
A|-------------------------------------------------------------------|
E|-------------------------------------------------------------------|

e|-------------------------------------------------------------------|
B|-----------7--------------------------7-7--------------------------|
G|---7-7-7-----9--7p6h7---7-7-7-7-7-7-9-----9-9-7-6------------------|
D|-------------------------------------------------------------------|
A|-------------------------------------------------------------------|
E|-------------------------------------------------------------------|

e|-------------------------------------------------------------------|
B|-----7-------------------------------------------------------------|
G|-------9-7-7-9p7-7-6/7---------------------------------------------| 
D|---9---------------------------------------------------------------|
A|-------------------------------------------------------------------|
E|-------------------------------------------------------------------|

Chorus III / End (Mou ikkai, mou ikkai...)

e|-------------------------------------------------------------------|
B|-----------------------------------7-7-----------------------------|
G|---7-7-7---6/7-7-7---7-7-7-7-7-7-9-----9-9-7-6---------------------|
D|-------------------------------------------------------------------|
A|-------------------------------------------------------------------|
E|-------------------------------------------------------------------|

e|----------------------------------------------11---11-11-11-11-11--|
B|-------------------------------------------------------------------|
G|-----11-11-9--9-7-7-11-11-9-9--7-7-7-7-7-7-7-----------------------|
D|---9---------------------------------------------------------------|
A|-------------------------------------------------------------------|
E|-------------------------------------------------------------------|

e|-------------------------------------------------------------------|
B|-----------7--------------------------7-7--------------------------|
G|---7-7-7-----9--7p6h7---7-7-7-7-7-7-9-----9-9-7-6------------------|
D|-------------------------------------------------------------------|
A|-------------------------------------------------------------------|
E|-------------------------------------------------------------------|

e|---------------------12-12-----------------------------------------|
B|-----7---------------12-12-----------------------------------------|
G|-------9-7-7-9p7-7---7--7------------------------------------------| 
D|---9---------------------------------------------------------------|
A|-------------------------------------------------------------------|
E|-------------------------------------------------------------------|
Добавлено: 17.06.2012
Другие материалы по этой песне:

Страница создана 17.06.2012
http://primanota.ru/miku-hatsune/rolling-girl-chords.htm
Привет, Гость.
Предлагаем пройти революционный курс по гитаре.
Подарок от PrimaNota.Ru, забирай!