PrimaNota.ru - самый крупный в мире бесплатный архив песенных текстов, аккордов, табулатур и нот


Miku Hatsune - Imitation - текст песни, таба, видео

Регистрация Запомнить меня
Войти через:  Facebook Google Twitter Vk Yandex Mail.ru

Miku Hatsune - Imitation - текст песни, таба, видео

Печатать
Просмотров: 209
Key- Ab Minor
Imitation - Hatsune Miku
Intro 0:00-0:11
This is super fast
e-11-------11-------11----9-------9-------9----4-----4-----4---|
B-------12-------12----12------11------11---11-----6-----6---6-|
G----13-------13------------11------11-----------6-----6-------|
D--------------------------------------------------------------|
A--------------------------------------------------------------|
E--------------------------------------------------------------|

e-4---------------------------------------------------|
B---7-6-----------------------------------------------|
G-------6-1-------------------------------------------|
D-----------4-3----6-----6-----4----4---1-4-4-2-1-----|
A---------------4----4-7---4-7---7----2-----------2-4-|
E-----------------------------------------------------|

Main 0:11-0:32
Melody
e-------12-11-------------------12-11----11-12-14----|
B----12-------14-12-14-12----12-------14----------12-|
G-11----------------------11-------------------------|
D----------------------------------------------------|
A----------------------------------------------------|
E----------------------------------------------------|

e-------12-11----------------------------|
B----12-------14-12-14-12-12-11-12-14-12-|
G-11-------------------------------------|
D----------------------------------------|
A----------------------------------------|
E----------------------------------------|

e-------12-11-------------------12-11----11-12-14----|
B----12-------14-12-14-12----12-------14----------12-|
G-11----------------------11-------------------------|
D----------------------------------------------------|
A----------------------------------------------------|
E----------------------------------------------------|

e----------------------------------|
B-12-11-12-14-12-------------------|
G----------------11-9--------------|
D---------------------13-11-13-9-8-|
A----------------------------------|
E----------------------------------|

Rhythm
e--------------------|
B--------------------|
G---------4---3------|
D-6---2---4---4--4-4-|
A-6---2---2---1--4-4-|
E-4---0----------2-2-|Repeat 4x

Bass Break 0:33-0:54

Strum an Ab to the beat

Chorus 0:54-1:14
Rhythm
e-----------------           -------------------|
B-----------------           -------------------|
G---------4-------           -------------------|
D-2---6---4---4---           -2----2----6-6-6-4-|
A-2---6---2---4---           -2----2----6-6-6-4-|
E-0---4-------2---Repeat 3x  -0----0----4-4-4-2-|

Still working on more! love this song, hope it helps someone out there
Добавлено: 08.09.2013
Другие материалы по этой песне:
  • Аккорды и текст

Страница создана 08.09.2013
http://primanota.ru/miku-hatsune/imitation-chords.htm
Привет, Гость.
Предлагаем пройти революционный курс по гитаре.
Подарок от PrimaNota.Ru, забирай!