PrimaNota.ru - самый крупный в мире бесплатный архив песенных текстов, аккордов, табулатур и нот


Michael Jackson - Don't Stop 'til You Get Enough - текст песни, бас-таба, видео

Регистрация Запомнить меня
Войти через:  Facebook Google Twitter Vk Yandex Mail.ru

Michael Jackson - Don't Stop 'til You Get Enough - текст песни, бас-таба, видео

Печатать
Просмотров: 80
Новый альбом группы 'Черный Кузнец' по культовому сериалу 'Сверхъестественное'!
Авторы музыки: Michael Jackson
Авторы текста: Michael Jackson
                                Don't Stop Til You Get Enough
                                     Michael Jackson
                                    

Bass                                                        Michael Jackson

As played by Greg Phillinganes/Louis Johnson

Intro Part 1

G|-------------------|-------------------|-------------------|---------------------|
D|-------------------|-------------------|-------------------|---------------0-2---|
A|-2---2---2-2-----0-|-2---2---2-2-----0-|-2---2---2-2-----0-|-2---2---2-2-------2-|
E|-------------------|-------------------|-------------------|---------------------|
   E S E E S E Q   E   E S E E S E Q   E   E S E E S E Q   E   E S E E S E E S S E

G|-------------------|---------------------|-------------------|-------------------|
D|-------------------|---------------4/6\--|-------------------|---------------9\--|
A|-2---2---2-2-----0-|-2---2---2-2-------2-|-2---2---2-2-----0-|-2---2---2-2-------|
E|-------------------|---------------------|-------------------|-------------------|
   E S E E S E Q   E   E S E E S E E S S E   E S E E S E Q   E   E S E E S E E Q

Intro Part 2

G|-------------------|-------------------|-------------------|-------------------|
D|-------------------|-------------------|-------------------|-------------------|
A|-2---2---2-2-----0-|-2---2---2-2-----0-|-2---2---2-2-----0-|-2---2---2-2-----0-|
E|-------------------|-------------------|-------------------|-------------------|
   E S E E S E Q   E   E S E E S E Q   E   E S E E S E Q   E   E S E E S E Q   E

G|-------------------|-------------------|-------------------|-------------------|
D|-------------------|-------------------|-------------------|-------------------|
A|-2---2---2-2-----0-|-2---2---2-2-----0-|-2---2---2-2-----0-|-2---2---2-2-------|
E|-------------------|-------------------|-------------------|-------------0-2-5-|
   E S E E S E Q   E   E S E E S E Q   E   E S E E S E Q   E   E S E E S E E E E 

Verse 1

G|-------------------|-------------------|-------------------|-------------------|
D|-------------------|-------------------|-------------------|-------------------|
A|-2---2---2-2-----0-|-2---2---2-2-----0-|-2---2---2-2-----0-|-2---2---2-2-----0-|
E|-------------------|-------------------|-------------------|-------------------|
   E S E E S E Q   E   E S E E S E Q   E   E S E E S E Q   E   E S E E S E Q   E

G|-------------------|-------------------|-------------------|-------------------------|
D|-------------------|-------------------|-------------------|-----------2-4-0-2-------|
A|-2---2---2-2-----0-|-2---2---2-2-----0-|-2---2---2-2-------|-2---2---0---------2-0-0-|
E|-------------------|-------------------|-------------------|-------------------------|
   E S E E S E Q   E   E S E E S E Q   E   E S E E S E Q   E   E S E E S S S S S S E S

G|-------------------|-------------------|-------------------|-------------------|
D|-------------------|-------------------|-------------------|-------------------|
A|-2-------2-2-----0-|-2---2---2-2-----0-|-2---2---2-2-----0-|-2---2---2---------|
E|-------------------|-------------------|-------------------|-----------0-0-2---|
   E S E E S E Q   E   E S E E S E Q   E   E S E E S E Q   E   E S E E E E S E E 

G|-------------------|-------------------|-------------------|---------------------|
D|-------------------|-------------------|-------------------|---------------------|
A|-2---2---2-2-----0-|-2---2---2-2-----0-|-2---2---2-2-----0-|-2---2---2-0---------|
E|-------------------|-------------------|-------------------|-------------2-1-0-2-|
   E S E E S E Q   E   E S E E S E Q   E   E S E E S E Q   E   E S E E E S S S E E

G|-------------------|-------------------|-------------------|-----------------4/6\4-|
D|-------------------|-------------------|-------------------|-----------------------|
A|-2---2---2-2-----0-|-2---2---2-2-----0-|-2---2---2-2-----0-|-2---2---2-2---2-------|
E|-------------------|-------------------|-------------------|-----------------------|
   E S E E S E Q   E   E S E E S E Q   E   E S E E S E Q   E   E S E E S E S S S S E

G|-------------------|-------------------|-------------------|-----------2--------------|
D|-------------------|-------------------|-------------------|-------------4---2-2-0----|
A|-2---2---2-2-----0-|-2---2---2-2-------|-2---2---2-2-----0-|-2---2---2------------2-0-|
E|-------------------|-------------------|-------------------|--------------------------|
   E S E E S E Q   E   E S E E S E Q   E   E S E E S E Q   E   E S E E S S S S S S S S S

Chorus 1

G|-------------------|-------------------|-------------------|-------------------|
D|-------------------|-------------------|-------------------|-------------------|
A|-2---2---2-2-----0-|-2---2---2-2-------|-2---2---2-2-----0-|-2---2---2-2-----0-|
E|-------------------|---------------2-5-|-------------------|-------------------|
   E S E E S E Q   E   E S E E S E E.S E   E S E E S E Q   E   E S E E S E Q   E

G|-------------------|-------------------|-------------------|-------------------|
D|-------------------|-------------------|-------------------|-------------------|
A|-2---2---2-2-----0-|-2---2---2-2-----0-|-2---2---2-2-----0-|-2---2---2-2-------|
E|-------------------|-------------------|-------------------|-------------------|
   E S E E S E Q   E   E S E E S E Q   E   E S E E S E Q   E   E S E E S E Q   E

Verse 2

G|-------------------|-------------------|-------------------|-----------------------|
D|-------------------|-------------------|-------------------|-----------------------|
A|-2---2---2-2-----0-|-2---2---2-2-----0-|-2---2---2-2-----0-|-2---2---2-2-----------|
E|-------------------|-------------------|-------------------|---------------0-0-5-2-|
   E S E E S E Q   E   E S E E S E Q   E   E S E E S E Q   E   E S E E S E E E S S S

G|-------------------|-------------------|-------------------|-------------------|
D|-------------------|-------------------|-------------------|-------------------|
A|-2---2---2-2-----0-|-2---2---2-2-----0-|-2---2---2-2-------|-2---2---2---------|
E|-------------------|-------------------|-------------------|-----------0---2-2-|
   E S E E S E Q   E   E S E E S E Q   E   E S E E S E Q   E   E S E E S Q   E.S

G|-------------------|-------------------|-------------------|-----------6-4-------------|
D|-------------------|-------------------|-------------------|---------------4---4-2-0---|
A|-2---2---2-2-----0-|-2---2---2-2-----0-|-2---2---2-2-----0-|-2---2---2---------------0-|
E|-------------------|-------------------|-------------------|---------------------------|
   E S E E S E Q   E   E S E E S E Q   E   E S E E S E Q   E   E S E E S S S S S S S S S 

G|-------------------|-------------------|-------------------|-----------------|
D|-------------------|-------------------|-------------------|-----------------|
A|-2---2---2-2-----0-|-2---2---2-2-----0-|-2---2---2-2-----0-|-2---2---2-------|
E|-------------------|-------------------|-------------------|-----------0-2-4-|
   E S E E S E Q   E   E S E E S E Q   E   E S E E S E Q   E   E S E E E E E.E

G|-------------------|-------------------|-------------------|-----------7\4-2---|
D|-------------------|-------------------|-------------------|-----------------4-|
A|-2---2---2-2-----0-|-2---2---2-2-----0-|-2---2---2-2-----0-|-2---2---2---------|
E|-------------------|-------------------|-------------------|-------------------|
   E S E E S E Q   E   E S E E S E Q   E   E S E E S E Q   E   E S E E E E S E E

G|-------------------|---------------------|-------------------|---------------------|
D|-------------------|---------------------|-------------------|-----------2-4-------|
A|-2---2---2-2-----0-|-2---2---2-2---------|-2---2---2-2-----0-|-2---2---2---------0-|
E|-------------------|---------------2/5\2-|-------------------|---------------0-2---|
   E S E E S E Q   E   E S E E S E E.S S S   E S E E S E Q   E   E S E E S S S E E E

Chorus 2

G|-------------------|-------------------|-------------------|-------------------|
D|-------------------|-------------------|-------------------|-------------------|
A|-2---2---2-2-----0-|-2---2---2-2-------|-2---2---2-2-----0-|-2---2---2-2-----0-|
E|-------------------|-------------------|-------------------|-------------------|
   E S E E S E Q   E   E S E E S E Q   E   E S E E S E Q   E   E S E E S E Q   E

G|-------------------|---------------------|-------------------|-----------------|
D|-------------------|---------------------|-------------------|-----------------|
A|-2---2---2-2-----0-|-2---2---4-2-1-0-----|-2---2---2-2-----0-|-2---------2/----|
E|-------------------|-----------------2-5-|-------------------|-----------------|
   E S E E S E Q   E   E S E E E S S S E E   E S E E S E Q   E   E Q   Q   Q.

Bridge

G|---------------------|-------------------|---------------------|-------------------|
D|---------------------|-------------------|---------------------|-------------------|
A|-0-2-----------------|-------------------|-2-2-----------------|-------------------|
E|-------0---0-0---2---|-2-2---4---4-5-7---|-------0---0-0---2---|-2-2---4---4-------|
   S S E Q   S S E Q     S S E Q   E E E E   S S E Q   S S E Q     S S E Q   E E Q

G|---------------------|---------------------|---------------------|-------------------|
D|---------------------|-----------------4\--|---------------------|-------------------|
A|-0-2-----------------|---------------------|-2-2-----------------|-------------------|
E|-------0---0-0---2---|-2-2---4---4-5-7-----|-------0---0-0---2---|-2-2---4-----------|
   S S E Q   S S E Q     S S E Q   E S S Q     S S E Q   S S E Q     S S E E E H E Q

Verse 3

G|-------------------|-------------------|-------------------|---------------------|
D|-------------------|-------------------|-------------------|---------------------|
A|-2---2---2-2-----0-|-2---2---2-2-------|-2---2---2-2-----0-|-2---2---2-----0-x-x-|
E|-------------------|-----------------0-|-------------------|-----------2-4-------|
   E S E E S E Q   E   E S E E S E Q   E   E S E E S E Q   E   E S E E S E E E S S

G|-------------------|-------------------|-------------------|---4-----3---2-------------|
D|-------------------|-------------------|-------------------|---------------4-2-2-0-----|
A|-2---2---2-2-----0-|-2---2---2-2-----0-|-2---2---2-2-----0-|-2-----2---2-----------2-0-|
E|-------------------|-------------------|-------------------|---------------------------|
   E S E E S E Q   E   E S E E S E Q   E   E S E E S E Q   E   S S S E E S E S S S S S S

G|-------------------|---------------------|-------------------|-------------------|
D|-------------------|---------------------|-------------------|-------------------|
A|-2---2---2-2-----0-|-2---2---2-2---------|-2---2---2-2-----0-|-2---2---2-------0-|
E|-------------------|---------------2/5\2-|-------------------|-----------0-0-2---|
   E S E E S E Q   E   E S E E S E E.S S S   E S E E S E Q   E   E S E E S E.E E S

G|-------------------|-------------------|-------------------|-----------------------|
D|-------------------|-------------------|-------------------|-----------0-2-2-4-6---|
A|-2---2---2-2-----0-|-2---2---2-2-----0-|-2---2---2-2-----0-|-2---2---2-----------0-|
E|-------------------|-------------------|-------------------|-----------------------|
   E S E E S E Q   E   E S E E S E Q   E   E S E E S E Q   E   E S E E S S E S S E S

G|-------------------|-------------------|-------------------|-------------------------|
D|-------------------|-------------------|-------------------|-------------------------|
A|-2---2---2-2-----0-|-2---2---2-2-----0-|-2---2---2-2-----0-|-2---2---2-2---2-5\4\2\0-|
E|-------------------|-------------------|-------------------|-------------------------|
   E S E E S E Q   E   E S E E S E Q   E   E S E E S E Q   E   E S E E S E S S S S S S

G|-------------------|-------------------|-------------------|---------7\6---------|
D|-------------------|-------------------|-------------------|---------------4/6---|
A|-2---2---2-2-----0-|-2---2---2-2-----0-|-2---2---2-2-----0-|-2---2-------------0-|
E|-------------------|-------------------|-------------------|---------------------|
   E S E E S E Q   E   E S E E S E Q   E   E S E E S E Q   E   E S E E S E S S E.S

Chorus 3

G|-------------------|---------------------|-------------------|-----------------------|
D|-------------------|---------------------|-------------------|-----------------------|
A|-2---2---2-2-----0-|-2---2---2-2---2-0---|-2---2---2-2-----0-|-2---2---2-2-2---------|
E|-------------------|---------------------|-------------------|---------------2-2-5-5-|
   E S E E S E Q   E   E S E E S E S S E E   E S E E S E Q   E   E S E E S S S E E S S

G|-------------------|---------------------|-------------------|-------------------|
D|-------------------|---------------------|-------------------|-------------------|
A|-2---2---2-2-----0-|-2---2---2-2---0---0-|-2---2---2-2-----0-|-2---2---2-2-2-2---|
E|-------------------|---------------------|-------------------|-------------------|
   E S E E S E Q   E   E S E E S E S E S E   E S E E S E Q   E   E S E E S S E E E.

G|-------------------|-------------------------|-------------------|-------------------|
D|-------------------|-------------------------|-------------------|---------1-4-6-7-4-|
A|-2---2---2-2-----0-|-2---2---2-2---2-0-------|-2---2---2-2-----0-|-2---2-------------|
E|-------------------|-------------------2/5\2-|-------------------|-------------------|
   E S E E S E Q   E   E S E E S E S S S S S S   E S E E S E Q   E   E S E E E.E E S S

G|-------------------|-----------------------|-------------------|-------------------|
D|-------------------|-----------------------|-------------------|-------------------|
A|-2---2---2-2-----0-|-2---2---2-2---2-------|-2---2---2-2-----0-|-2---2---2-2-------|
E|-------------------|-----------------5\2/5-|-------------------|-------------------|
   E S E E S E Q   E   E S E E S E S S S S E   E S E E S E Q   E   E S E E S E Q   E

Verse 4

G|-------------------|-------------------|-------------------|-----------------------|
D|-------------------|-------------------|-------------------|-------------4/7-4/7/9-|
A|-2---2---2-2-----0-|-2---2---2-2-----0-|-2---2---2-2-----0-|-2---2---2-2-----------|
E|-------------------|-------------------|-------------------|-----------------------|
   E S E E S E Q   E   E S E E S E Q   E   E S E E S E Q   E   E S E E S S E E S S S

G|-------------------|-----------------------|-------------------|-----------6\4---------|
D|-------------------|-----------------------|-------------------|---------------0-2-----|
A|-2---2---2-2-----0-|-2---2---2-2---0-------|-2---2---2-2-----0-|-2---2---2---------2-0-|
E|-------------------|-----------------0-2-5-|-------------------|-----------------------|
   E S E E S E Q   E   E S E E S E S E S S S   E S E E S E Q   E   E S E E S S E S E S S

Chorus 4

G|-------------------|-------------------|-------------------|----------/6--/9/11--|
D|-------------------|-------------------|-------------------|---------------------|
A|-2---2---2-2-----0-|-2---2---2-0---0---|-2---2---2-2-----0-|-2---2---2-----------|
E|-------------------|-------------2-----|-------------------|---------------------|
   E S E E S E Q   E   E S E E E E S E E   E S E E S E Q   E   E S E E S E S S E E

G|-------------------|-----------------------|-------------------|-7-11-11-9-7-----------|
D|-------------------|-----------------------|-------------------|-------------9---------|
A|-2---2---2-2-----0-|-2---2---2-------------|-2---2---2-2-----0-|---------------7-5-----|
E|-------------------|-----------0---0-2---2-|-------------------|-------------------7---|
   E S E E S E Q   E   E S E E S E S S E S S   E S E E S E Q   E   E E  S  S S S E E E E

G|-------------------|-----------------------|-------------------|--/9-7-----------------|
D|-------------------|-----------------------|-------------------|-------9-7-7-----------|
A|-2---2---2-2-----0-|-2---2---2-2---2-------|-2---2---2-2-----0-|-2-----------9-7-----5-|
E|-------------------|-----------------2-5-5-|-------------------|-----------------5-7---|
   E S E E S E Q   E   E S E E S E S S E S S   E S E E S E Q   E   E E E S E S S S S S E

G|-------------------|-------------------|-----------------------|---------------------|
D|-------------------|-------------------|-4---1-1-1-------------|---------------------|
A|-2---2---2-2-----0-|-2---2---2-2-----0-|-----------------------|---------------0-1---|
E|-------------------|-------------------|-----------0---0-1---1-|-2---4---4-4-4-------|
   E S E E S E Q   E   E S E E S E Q   E   E S E.S S E S S E S S   E S E S S S E E E E

G|---------------------|-----------2-----------|-----------------|--------7-9-11-9-7-----------|
D|---------------------|-------------4-1-2-4-4-|-----------------|---11-9------------9---------|
A|-2---2-2-0-2---2-2-0-|-2---2-2---------------|-2---2-2-0-2---0-|---------------------8-5-7---|
E|---------------------|-----------------------|-----------------|-7-------------------------7-|
   E S E E S E E S S E   E S E E S S S E E S S   E S E E S E Q E   E S  S E E S  S S S S S S S

G|-------------------|-----------------|-------------------|-----------9-9-11-7-9---|
D|-------------------|-----------------|-------------------|----------------------9-|
A|-2---2-2-2-2-----0-|-2---2-2-2---0---|-2---2-2-2-2-----0-|-2---2---0--------------|
E|-------------------|-----------------|-------------------|------------------------|
   E S E E S E Q   E   E S E E E E.E E   E S E E S E Q   E   E S E E S S S S  S E E

G|-------------------|-----------------------|-------------------|-4---------------6-4-|
D|-------------------|-----------------------|-------------------|---1-2---2-2-4-4-----|
A|-2---2-2-2-2-----0-|-2---2---2-------------|-2---2---2-2-----0-|---------------------|
E|-------------------|-----------0---0-2---2-|-------------------|---------------------|
   E S E E S E Q   E   E S E E S E S S E S S   E S E E S E Q   E   E E E S S S E S E E

G|---------------4-----|---------------2-2-----|-------------------|-----------------------||
D|---------------------|-------------------4-2-|-------------------|-----------------------||
A|-2---2---2-2-----0-0-|-2---2---2-2-----------|-2---2---2-2---2---|-2---2---2---2---2-----||
E|---------------------|-----------------------|-------------------|-----------------------||
   E S E E S E S E.S S   E S E E S E S E S S S   E S E E S E S E E.  E S S S S S S S E S Q

Key to rhythm notations:

W - Whole Note/Semi-Brieve
H - Half Note/Minim
Q - Quarter Note/Crotchet       Q. - Dotted Quarter Note
E - Eight Note/Quaver           E. - Dotted Eight Note
S - Sixteenth Note/Semi-Quaver  S. - Dotted Sixteenth Note
Добавлено: 29.05.2018
Другие материалы по этой песне:

Страница создана 21.02.2012
http://primanota.ru/michael-jackson/dont-stop-til-you-get-enough-chords.htm
Привет, Гость.
Предлагаем пройти революционный курс по гитаре.
Подарок от PrimaNota.Ru, забирай!