PrimaNota.ru - самый крупный в мире бесплатный архив песенных текстов, аккордов, табулатур и нот


Mgła - With Hearts Toward None I - таба, видео

Регистрация Запомнить меня
Войти через:  Facebook Google Twitter Vk Yandex Mail.ru

Mgła - With Hearts Toward None I - таба, видео

Печатать
Просмотров: 40
Artist: Mgła

Album: With Hearts Toward None

Song: With Hearts Toward None I

Tuning: C-standard(C F A# D# G C). Though live they seem to play tuned to D-standard, one step up from this.

All bars are 4/4

Riff 1 Lead(Tremolo-picked the whole way through):
|------------------|------------------|------------------|------------------|
|------------------|------------------|------------------|------------------|
|------------------|-9---5-------7----|------------------|-9---5------------|
|-7-------5---7----|---------3--------|-7-------5---7----|------------------|
|------------------|------------------|------------------|---------3---5----|
|------------------|------------------|------------------|------------------|
  h       q   q      q   q   q   q      h       q   q      q   q   q   q

|------------------|------------------|------------------|------------------|
|------------------|------------------|------------------|------------------|
|------------------|-9---5-------7----|---------5---7----|-2-------5---0----|
|-7-------5---7----|---------3--------|-7----------------|-----3------------|
|------------------|------------------|------------------|------------------|
|------------------|------------------|------------------|------------------|
  h       q   q      q   q   q   q      h       q   q      q   q   q   q

Riff 1 Rhythm(Played regularly the two first times it is played, tremolo-picked after that):
|-----|-----|-----|-----|-----|-----|-----|-----|
|-----|-----|-----|-----|-----|-----|-----|-----|
|-----|-----|-----|-----|-----|-----|-----|-----|
|-----|-----|-----|-----|-----|-----|-----|-----|
|--7--|-(7)-|--8--|-(8)-|--7--|-(7)-|--3--|--3--|
|--5--|-(5)-|--5--|-(5)-|--5--|-(5)-|--5--|--1--|
   w     w     w     w     w     w     w     w

Riff 2 Lead(Tremolo-picked the whole way through): 
|---|-----5-|-(5)-|-(5)-3-|-(3)-|-(3)---|-----|-------|
|-5-|-(5)---|-----|-------|-----|-----6-|-(6)-|-(6)-5-|
|---|-------|-----|-------|-----|-------|-----|-------|
|---|-------|-----|-------|-----|-------|-----|-------|
|---|-------|-----|-------|-----|-------|-----|-------|
|---|-------|-----|-------|-----|-------|-----|-------|
  w    h  h    w     h  h    w     h  h    w     h  h

Riff 2 Rhythm(Palm mute chords):
|------------------|---|---|---|------------------|---|---|---|
|------------------|---|---|---|------------------|---|---|---|
|------------------|---|---|---|------------------|---|---|---|
|-7-7-7---7---r----|-r-|-r-|-r-|-7-7-7---7---r----|-r-|-r-|-r-|
|-7-7-7---7---r----|---|---|---|-7-7-7---7---r----|---|---|---|
|-5-5-5---5---r----|---|---|---|-5-5-5---5---r----|---|---|---|
  e e q   q   q      w   w   w   e e q   q   q      w   w   w

Riff 2 Extra guitar(Really hard to hear, so possibly not 100% correct. Played by the rhythm guitar live): 
|---------|---------|---------|---------|---------|---------|---------|----------|
|---------|---------|---------|---------|---------|---------|---------|----------|
|---------|---------|---------|---------|---------|---------|---------|----------|
|-7---7---|-7---7---|-7---7---|-7---7---|-7---7---|-7---7---|-7---7---|-10--10-9-|
|---7---7-|---7---7-|---7---7-|---7---7-|---7---7-|---7---7-|---7---7-|---7------|
|---------|---------|---------|---------|---------|---------|---------|----------|
  q q q q   q q q q   q q q q   q q q q   q q q q   q q q q   q q q q   q q q  q  

Riff 3 Lead(Tremolo-picked the whole way through):
|-----|-----|-3---|-----|
|-3---|-6-3-|---3-|-----|
|---3-|-----|-----|-3-5-| x 4
|-----|-----|-----|-----|
|-----|-----|-----|-----|
|-----|-----|-----|-----|
  h h   h h   h h   h h

Riff 3 Rhythm:
|-----|-----|-----|-----|-----|-----|-----|-----|-----|-----|-----|-----|-----|-----|-----|-----|
|-----|-----|-----|-----|-----|-----|-----|-----|-----|-----|-----|-----|-----|-----|-----|-----|
|-----|-----|-----|-----|-----|-----|-----|-----|-----|-----|-----|-----|-----|-----|-----|-----|
|--7--|-(7)-|-(7)-|-(7)-|--7--|-(7)-|-(7)-|-(7)-|--3--|-(3)-|-(3)-|-(3)-|-----|-----|-----|-----|
|--5--|-(5)-|-(5)-|-(5)-|--5--|-(5)-|-(5)-|-(5)-|--1--|-(1)-|-(1)-|-(1)-|--5--|-(5)-|-(5)-|-(5)-|
|-----|-----|-----|-----|-----|-----|-----|-----|-----|-----|-----|-----|--3--|-(3)-|-(3)-|-(3)-|
   w     w     w     w     w     w     w     w     w     w     w     w     w     w     w     w

Song structure:
0:00 Riff 1 intro-version
0:24 Riff 1  
1:06 Riff 2 
2:32 Riff 3
3:36 Riff 1 
4:18 Riff 2 until end

Добавлено: 05.05.2016
Другие материалы по этой песне:

Страница создана 05.05.2016
http://primanota.ru/mga/with-hearts-toward-none-i-chords.htm
Привет, Гость.
Предлагаем пройти революционный курс по гитаре.
Подарок от PrimaNota.Ru, забирай!