PrimaNota.ru - самый крупный в мире бесплатный архив песенных текстов, аккордов, табулатур и нот


Metric - Too Little Too Late - текст песни, таба, видео

Регистрация Запомнить меня
Войти через:  Facebook Google Twitter Vk Yandex Mail.ru

Metric - Too Little Too Late - текст песни, таба, видео

Печатать
Просмотров: 252
Авторы музыки: Metric

I love this song. I figured this song out accidently when I was making up a riff of my
own and realized the intro sounded like it.So it was pretty cool. Any questions email
Entirely_Smooth_Chick@hotmail.com

Intro:
E--------------------------------------------------------------]
B--------------------------------------------------------------]
G--------------------------------------------------------------]
D----------------------4/6-6-44-22--------------44-66----55----]
A-2~222/4h6p4-7~-2222--------------4p2---4h7p4~--------55------]
E--------------------------------------------------------------]

E----------------------------------------------------]
B----------------------------------------------------]
G----------------------------------------------------]
D--------/9-9--77-66---------------------------------]
A-22222---------------7h4 4444-22-44-55--7~----------]
E----------------------------------------------------]

E--------------------------------------------------------]
B--------------------------------------------------------]
G--------------------------------------------------------]
D-------4/6-6-44--22-------------44-66----55-------------]
A--2222---------------4p2--4h7p4-------55----------------]
E--------------------------------------------------------]

E----------------------------------------------------]
B----------------------------------------------------]
G----------------------------------------------------]
D--------/9-9--77-66---------------------------------]
A-22222---------------7h4 4444-22-44-55--7~----------]
E----------------------------------------------------]


Verse: "You can burn..."

E--------------------------------------------------------]
B--------------------------------------------------------]this changes
G----------------------9~----9~-----8~----8~-------------]a bit so you
D----------------------9~----9~-----9~----9~-------------]gotta listen
A--66666----99999---77-7~-77-7~--77-7~-77-7~-------------]but this is the 
E--44444----77777----------------------------------------]basic part.
   ..... PM ..... 

Chorus:
E-------------------------------------------------------------]
B-------------------------------------------------------------]
G-----9-----9------99-88--------9------9------99-88-----------]
D--77--7-77---7-77--------99-66---6-66---6-66--------99-------]
A-------------------------------------------------------------]
E-------------------------------------------------------------]

Ending bit of the chorus
E-------------------------------------------------------------]
B-------------------------------------------------------------]
G-----9-------9----99-88-------9--------9------9------88------]
D--77---7--77---77-------99-66---6--66----6-66---6--99---6/7~-]
A-------------------------------------------------------------]
E-------------------------------------------------------------]

Pre-lude
is same as intro


Verse2:
E--------------------------------------------------------]
B--------------------------------------------------------]this changes
G----------------------9~----9~-----8~----8~-------------]a bit so you
D----------------------9~----9~-----9~----9~-------------]gotta listen
A--66666----99999---77-7~-77-7~--77-7~-77-7~-------------]but this is the 
E--44444----77777----------------------------------------]basic part.
   ..... PM ..... 


Chorus:
E-------------------------------------------------------------]
B-------------------------------------------------------------]
G-----9-----9------99-88--------9------9------99-88-----------]
D--77--7-77---7-77--------99-66---6-66---6-66--------99-------]
A-------------------------------------------------------------]
E-------------------------------------------------------------]

Ending bit of the chorus
E-------------------------------------------------------------]
B-------------------------------------------------------------]
G-----9-------9----99-88-------9--------9------9------88------]
D--77---7--77---77-------99-66---6--66----6-66---6--99---6/7~-]
A-------------------------------------------------------------]
E-------------------------------------------------------------]

The ending little bridge
is the intro basically slowed down so you'll have to listen to which part comes in
where. Enjoy.


  

Добавлено: 22.03.2012
Другие материалы по этой песне:

Страница создана 21.03.2012
http://primanota.ru/metric/too-little-too-late-chords.htm
Привет, Гость.
Предлагаем пройти революционный курс по гитаре.
Подарок от PrimaNota.Ru, забирай!