PrimaNota.ru - самый крупный в мире бесплатный архив песенных текстов, аккордов, табулатур и нот


Metric - Poster Of A Girl - текст песни, таба, видео

Регистрация Запомнить меня
Войти через:  Facebook Google Twitter Vk Yandex Mail.ru

Metric - Poster Of A Girl - текст песни, таба, видео

Печатать
Просмотров: 108
Авторы музыки: Metric

SONG:   Poster of a Girl
ARTIST: Metric
ALBUM:  Live it Out
YEAR:   2005
TRACK:  5
TUNING: eBGDAE (standard)


This is a good song; pretty easy to play, since the guitarist is busy on a second
behind
Emily for a lot of the song. It's basically a little bit of easy picking, plus a
fairly fun/energetic
riff in the middle of the song.

If you don't speak French, most of the French parts of the song are just translations of
English
lyrics (or maybe vice-versa).


  Can't stand by myself
  Hate to sleep alone
  Surprises always help


(0:13)
e|----------------------------------------------------------------------|
B|----------------------------------------------------------------------|
G|----------------------------------------------------------------------|
D|-----------------------------------------------------6---6---6---6----|
A|-----9---9---9---9---6---6---6---6---9---9---9---9--4---4---4---4-----|
E|----7---7---6---6---4---4---4---4---7---7---6---6---------------------|
  So I take somebody home
  To find out how I feel


(0:22)
e|--------------------------------------------------------------------------------------|
B|--------------------------------------------------------------------------------------|
G|--------------------------------------------------------------------------------------|
D|-----6---6---------------------------6---6--------------------------------------------|
A|----4---4----6---6---4---4---4---4--4---4----6---6---4---4---4---4---2---2---2---2----|
E|------------4---4---2---2---2---2-----------4---4---2---2---2---2---0---0---0---0-----|
  I feel like just a baby
  Portrait of a lady
  Poster a girl


  Je sais que tu n'aimes pas ta réalité
  Tu sais que tu n'aimes pas ta réalité
  Tu sais que je n'aime pas ma réalité
  Je sais que tu n'aimes pas ta réalité
  Tu sais que je n'aime pas ma réalité
  On ne peut pas fabriquer la vérité
  Tu sais que tu n'aimes pas ta réalité
  Je sais que tu n'aimes pas ta réalité


  Satisfy myself
  Avoid beginners
  Who long to shut my mouth


(1:22)
e|--------------------------------------------------------------------------------------|
B|--------------------------------------------------------------------------------------|
G|--------------------------------------------------------------------------------------|
D|-----------------------------------------------------6---6---6---6---6---6---6---6----|
A|-----9---9---9---9---6---6---6---6---9---9---9---9--4---4---4---4---4---4---4---4-----|
E|----7---7---6---6---4---4---4---4---7---7---6---6-------------------------------------|
  Till I take one of them home
  'Cause I know how it feels
  Filling in the blanks


(1:31)
e|--------------------------------------------------------------------------------------|
B|--------------------------------------------------------------------------------------|
G|--------------------------------------------------------------------------------------|
D|-------------------------------------6---6---6---6---6---6---6---6--------------------|
A|-----6---6---6---6---6---6---6---6--4---4---4---4---4---4---4---4----4---4---4---4----|
E|----4---4---4---4---4---4---4---4-----------------------------------2---2---2---2-----|
  Looking on the bright side
  When there is no bright side


(1:41)
e|--------------------------------------------------------------------------------------|
B|--------------------------------------------------------------------------------------|
G|--------------------------------------------------------------------------------------|
D|--------------------------------------------------------------------------------------|
A|-----4---4---4---4---6---6---6---6---4---4---4---4---2---2---2---2---2---2---2---2----|
E|----2---2---2---2---4---4---4---4---2---2---2---2---0---0---0---0---0---0---0---0-----|
  Coming in your pants
  For the off-chance with a...


(1:53) He throws in that extra note in parentheses occasionally, but not always. Use mild
e|-----------------------------------------------------------------|    distorition here.
B|-----------------------------------------------------------------|
G|----11~~--13-13--13----11~~--13-13------13-13-11-11--------------|
D|----11~~--13-13--13----11~~--13-13-(11)-13-13-11-11-11-11--11----|    ×6
A|----------------------------------------------------11-11--11----|
E|-----------------------------------------------------------------|
  Poster of a girl
  Poster of a girl
  Poster of a girl
  Poster of a girl
  Poster of a girl
  Poster of a girl


  Je déteste dormir sans une présence


(3:01)
e|-------------------------------------------------- |
B|----7-9----7-9----7-9----7-9----7----9------------ |
   __
G|------------------------------------------|        |
D|------------------------------------------|    ×2  |
A|------------------------------------------|        |
E|------------------------------------------|        |
                                                                                      | together
e|------------------------------------7------6------6------6------7----6---------|    |
×5  |
B|----7-9----7-9----7-9----7-9----7-9------9------9------9------9-----------9----|
 |
G|-------------------------------------------------------------------------------|
 |
D|-------------------------------------------------------------------------------|
 |

 |

 |
  Les surprises semblent alléger ma solitude
  Alors je ramène quelqu'un dans mon lit
  Afin de découvrir comment je me sens
  Comme un bébé
  Portrait d'une femme
  Affiche d'une fille
  Portrait d'une femme
  Affiche d'une fille
  Me satisfaire, éviter les novices
  Ceux qui cherchent à me faire taire
  Jusqu'à ce que je rentre avec l'un d'eux
  Car je connais la sensation de chercher le fil d'or
  Et de ne jamais le trouver
  Coming in your pants qui ne pense qu'à coucher avec une fille d'affiche
  Affiche d'une fille
  Une fille d'affiche
  Portrait d'une femme
  Affiche d'une fille
  Tu sais que tu n'aimes pas ta réalité
  Je sais que tu n'aimes pas ta réalité


(4:23)
e|------------------------------------------|
B|----7-9----7-9----7-9----7-9----7----9----|
G|------------------------------------------|
D|------------------------------------------|    ×2
A|------------------------------------------|
E|------------------------------------------|
  On ne peut pas fabriquer la vérité
  Je sais que tu n'aimes pas ta réalité


(4:31)
e|------------------------------------7------6------6------6------6------6---------|
B|----7-9----7-9----7-9----7-9----7-9------9------9------9------9------9------9----|
G|---------------------------------------------------------------------------------|
D|---------------------------------------------------------------------------------|
A|---------------------------------------------------------------------------------|
E|---------------------------------------------------------------------------------|
  Tu sais que tu n'aimes pas ta réalité
Добавлено: 23.04.2012
Другие материалы по этой песне:

Страница создана 23.04.2012
http://primanota.ru/metric/poster-of-a-girl-chords.htm
Привет, Гость.
Предлагаем пройти революционный курс по гитаре.
Подарок от PrimaNota.Ru, забирай!