PrimaNota.ru - самый крупный в мире бесплатный архив песенных текстов, аккордов, табулатур и нот


Metallica - The Other New Song - текст песни, таба, видео

Регистрация Запомнить меня
Войти через:  Facebook Google Twitter Vk Yandex Mail.ru

Metallica - The Other New Song - текст песни, таба, видео

Печатать
Просмотров: 192
-------------------------------------------------------------------------------
			     The Other New Song - Metallica
-------------------------------------------------------------------------------
Tabbed by: Austin
Email: austinm_95@hotmail.com

Tuning: 6-Eb 5-Ab 4-Db 3-Gb 2-Bb 1-Eb

Intro Repeat 4 times

e|---------------------------------------------------------------------------|
B|---------------------------------------------------------------------------|
G|---/5------\2--------------------------------------------------------------|
D|---/5------\2--------------------------------------------------------------|
A|----------------0-0-0-0-0-0-0-0-0-0-0-0-0-0-0-0-0-0------------------------|
E|---------------------------------------------------------------------------|

1st Verse thing

e|---------------------------------------------------------------------------|
B|---------------------------------------------------------------------------|
G|----7--------------------------------5-------------------------------------|
D|----7-----3----5---------------------5-----2-----3-------------------------|
A|----5-----3----5---------------------3-----2-----3-------------------------|
E|----------1----3---3-3-3-3-3-3-3-----------0-----1-----1-1-1-1-1-1-1-------|

Repeat First Into thing For Verse.

The Go to this thing

e|-------------------------------------------------------------------------------------|
B|-------------------------------------------------------------------------------------|
G|---7------------------5-----------------7--------------5---------3------2------------|
D|---7----3-----5-------5-----2----3------7----3----5----5--2--3---3--2-3-2------------|
A|---5----3-----5-------3-----2----3------5----3----5----3--2--3---1--2-3-0------------|
E|--------1-----3-------------0----1-----------1----3-------0--1------0-1--------------|

Solo. This is a Crappy Solo No Offence Kirk

e|------17------17----17-----20p17-----20p17----20p17------------------------|
B|----20b---20b----20b--------------20-------20--------20---20p17--20p17-----|
G|----------------------------------------------------------------19-----19--|
D|---------------------------------------------------------------------------|
A|---------------------------------------------------------------------------|
E|---------------------------------------------------------------------------|

e|----------------------------17--17---17--17----20-17----20-17---20-17------|
B|-20b-----20---20--20--20----20b-20b--20b-20b----------20-------20------20--|
G|---------19b--19b-19b-19b--------------------------------------------------|
D|---------------------------------------------------------------------------|
A|---------------------------------------------------------------------------|
E|---------------------------------------------------------------------------|

e|--20-17-------20b22---22b24------------------------------------------------|
B|---------20----------------------------------------------------------------|
G|---------------------------------------------------------------------------|
D|---------------------------------------------------------------------------|
A|---------------------------------------------------------------------------|
E|---------------------------------------------------------------------------|

   Well thats all i got dudes its the first tab on here for this song and its alright 
perfect but i think its okay.Email me if you have any Question Corrections Ect..

| /  slide up
| \  slide down
| h  hammer-on
| p  pull-off
| ~  vibrato
| +  harmonic
| x  Mute note
===============================================================================
Добавлено: 26.11.2013
Другие материалы по этой песне:
  • Аккорды и текст

Страница создана 26.11.2013
http://primanota.ru/metallica/the-other-new-song-chords.htm
Привет, Гость.
Предлагаем пройти революционный курс по гитаре.
Подарок от PrimaNota.Ru, забирай!