PrimaNota.ru - самый крупный в мире бесплатный архив песенных текстов, аккордов, табулатур и нот


Metallica - Live Shit - аккорды и текст, бас-таба, видео

Регистрация Запомнить меня
Войти через:  Facebook Google Twitter Vk Yandex Mail.ru

Metallica - Live Shit - аккорды и текст, бас-таба, видео

Печатать
Просмотров: 167
Live Shit
Metallica
6 раз
C|---------|
G|---------|
D|---------|
A|---------|
F|---------|
C|-00000-0-|

C|---|
G|---|
D|---|
A|---|
F|---|
C|-0-|

C|----------------|
G|----------------|
D|----------------|
A|----------------|
F|----------------|
C|-5p3p0-00-5-000-|

C|-------------------------------------------------------------|
G|-------------------------------------------------------------|
D|-------------------------------------------------------------|
A|-------------------------------------------------------------|
F|-------------------------------------------------------------|
C|-18-15-0-17~17~-15-18-15-0-17~17~-15-18-15-0-17~17~-15-18-15-|

C|---------|
G|---------|
D|---------|
A|---------|
F|---------|
C|-0-0-0-0-|

If I had my wasted days back, I could use them...
C|--------------|
G|--------------|
D|--------------|
A|--------------|
F|--------------|
C|-5p3/0-000000-|

Do i have the strength to know...
C|---------------------|
G|---------------------|
D|---------------------|
A|---------------------|
F|---------------------|
C|-3333-2222-3333-2222-|

You live or you lie it
C|-------------------|
G|-------------------|
D|-------------------|
A|-------------------|
F|-------------------|
C|-18-15-0-17~17~-15-|

My lifestyle, determines my deathstyle
C|-----------------------------|
G|-----------------------------|
D|-----------------------------|
A|-----------------------------|
F|-----------------------------|
C|-00-0--000-0-0-00-0--000-0-0-|

Then to the chorus...

James:
Keep searching
C|-----------------------|
G|-----------------------|
D|-----------------------|
A|-11------10---------11-|
F|---12--11---11-11-12---|
C|-----10----------------|

Kirk:
C|-------------|
G|-------------|
D|-16-13-15~~~-|
A|-------------|
F|-------------|
C|-------------|

C|-----------|
G|-----------|
D|-10-/8~/7~-|
A|-----------|
F|-----------|
C|-----------|

Лирика:

If I could have my wasted days back
Would I use them to get back on track?
Stop to warm at karmas burning
Or look ahead, but keep on turning?

Do I have the strength
To know how I?ll go?
Can I find it inside
To deal with what I shouldn?t know?

Could I have my wasted days back
Would I use them to get back on track?

You live it or lie it!

My lifestyle determines my deathstyle

Keep searching, keep on searching
This search goes on, this search goes on

Frantic tick tick tick tick tick tock
Frantic tick tick tick tick tick tock

I?ve worn out always being afraid
An endless stream of fear that I?ve made
Treading water full of worry
This frantic tick tick talk of hurry

Do I have the strength
To know how I?ll go?
Can I find it inside
To deal with what I shouldn?t know?

Worn out always being afraid
An endless steam of fear that I?ve made

You live it or lie it!

MY lifestyle determines my deathstyle

Keep searching, keep on searching
This search goes on, this search goes on

Frantic tick tick tick tick tick tock
Frantic tick tick tick tick tick tock

My lifestyle (Birth is pain)
Determines my deathstyle (Life is pain)
A rising tide (Death is pain)
That pushes to the other side (It?s all the same)
Добавлено: 17.04.2014
Другие материалы по этой песне:
  • Аккорды и текст

Страница создана 29.02.2012
http://primanota.ru/metallica/live-shit-chords.htm
Привет, Гость.
Предлагаем пройти революционный курс по гитаре.
Подарок от PrimaNota.Ru, забирай!