PrimaNota.ru - самый крупный в мире бесплатный архив песенных текстов, аккордов, табулатур и нот


Metallica - Hell And Back - текст песни, таба, видео

Регистрация Запомнить меня
Войти через:  Facebook Google Twitter Vk Yandex Mail.ru

Metallica - Hell And Back - текст песни, таба, видео

Печатать
Просмотров: 590
Авторы музыки: Kirk Hammett, James Hetfield, Robert Trujillo, Lars Ulrich
Авторы текста: James Hetfield
Song: HELL AND BACK
Artist: METALLICA
Tabbed by: Adam Cook
Tuning: E STANDARD

HERE ARE THE MAIN RIFFS

INTRO/VERSE CLEAN 
e|-------------------------------------------------------------|
B|-------------------------------------------------------------|
G|-------------------------------------------------------------|
D|---------------------------3-2-------------------------------|
A|---3-2-3-3-2-3-3-2-3-2-3-2-----------------------------------|
E|-0-----0-0-0-0-0-0-0-0-0-0-----------------------------------|

0:15			              0:17 (CHORUS)
e|-------------|------------------------------------------------|
B|-------------|------------------------------------------------|
G|-------------|------------------------------------------------|
D|-8-8-8-8-8-8-|--5----4----7----4----7----8-8-8-8-8--8---------|
A|-6-6-6-6-6-6-|--3-X8-2-X8-5-X8-2-X8-5-X8-8-8-8-8-8--8---------|
E|-6-6-6-6-6-6-|--3----2----5----2----3----6-6-6-6-6--6---------|

MAIN RIFF 
0:29
e|-------------------------------------------|
B|-------------------------------------------|
G|-------------------------------------------|
D|------------------2---2-2-----2-2----------|
A|------------------2---2-2-----2-2----------|
E|--5H7-7-5H7P3-3H5-0-0-0-0-3B5-0-0----------|

0:44	
e|----------------------------------------------|
B|----------------------------------------------|
G|----------------------------------------------|
D|-2-----5-5-4-5-4--5-4~-2----5-5-4-5-4-10-9----|
A|-2-----3-3-2-3-2--3-2~-2----3-3-2-3-2-8--7----|
E|-0-0-0-----------------0-0-0------------------|

1:15 X2 CLEAN			             1:23				            1:27 
e|---------------------|-----------------------|--------------------------|
B|---------------------|-----------------------|--------------------------|
G|-------5-4--5-4--5-4-|--------5-4--5-4-------|-------5-4--5-4--10-9-5-4-|
D|-------X-X--X-X--X-X-|--2-----X-X--X-X-----2-|-------X-X--X-X--X--X-X-X-|
A|---0H2-3-2--3-2--3-2-|--2-0H2-3-2--3-2-----2-|---0H2-3-2--3-2--8--7-3-2-|
E|-0-0---0-0--0-0--0-0-|--0-0---0-0--0-0-3B4-0-|-0-0---0-0--0-0--0--0-0-0-|


  3:57    4:14     4:17	             4:41	     4:48	         4:56
e|-------|-------|-------------|------------|-------------|--------------------|
B|-------|-------|-------------|------------|-------------|--------------------|
G|-------|-------|-------------|------------|-------------|--------------------|
D|-X-2-2-|-------|-------------|------------|-------------|--------------------|
A|-X-2-2-|---2-1-|---4-3~--2---|--6-5---4---|-8-8-8---6---|--9-8-9-8-10-9-11-10|
E|-X-0-0-|-0-----|-2-----5---3-|-4----7---5-|-6-6-6-/7-7--|-7---7---8----9-----|
Добавлено: 24.07.2012
Другие материалы по этой песне:

Страница создана 02.03.2012
http://primanota.ru/metallica/hell-and-back-chords.htm
Привет, Гость.
Предлагаем пройти революционный курс по гитаре.
Подарок от PrimaNota.Ru, забирай!