PrimaNota.ru - самый крупный в мире бесплатный архив песенных текстов, аккордов, табулатур и нот


Metallica - Frayed - таба, видео

Регистрация Запомнить меня
Войти через:  Facebook Google Twitter Vk Yandex Mail.ru

Metallica - Frayed - таба, видео

Печатать
Просмотров: 156
Band: Social Code
Album: Social Code
Song: Frayed
Tuning: Standard
Tabbed by: Gabe Popovici (punklives4ever2007@hotmail.com)

Hey, I'm a new member of Ultimate-Guitar. Here's some tabs for the song Frayed by Social 
from the self-titled album. I noticed that nobody else tabbed this song, so I decided 
tab it for myself. And, so, here are the tabs. It's my first tab. Enjoy.

/=slide down
~=let ring
*= palm mute

Intro (2x)
e---------------7/5-5/3---|
B-------------------------|
G-------------------------|
D----------6-6----------6-|
A0-3-5-3-5--3-3-----------|
E-------------------------|

Verse 1
e------------------------------------|
B------------------------------------|
G------------------------------------|
D----------6-----------6-----------6-|
A0-3-5-3-5---0-3-5-0-3---0-3-5-3-5---|
E------------------------------------|

Verse 2
e-----------------------|
B-----------------------|
G7-----7----7-----7-----|
D--6-6--6-6---6-6---6-6-|
A-----------------------|
E-----------------------|

Repeat Verses 1 and 2, then:
Pre-Chorus
e------------------------------------------------------------|
B------------------------------------------------------------|
G9-9--9-9--9-9--9-9--5-5--5-5--5-5--5-5--9-9--9-9--9-9--9-9--|
D9-9--9-9--9-9--9-9--5-5--5-5--5-5--5-5--9-9--9-9--9-9--9-9--|
A7-7--7-7--7-7--7-7--3-3--3-3--3-3--3-3--7-7--7-7--7-7--7-7--|
E------------------------------------------------------------|

e-----------------------|
B-----------------------|
G1212--1212--1212--1212-|
D1212--1212--1212--1212-|
A1010--1010--1010--1010-|
E-----------------------|

Chorus 1 part 1 (3x)
e-------------------------|
B-------------------------|
G5-5-5-5-5-5--3-3-3-3-3-3-|
D5-5-5-5-5-5--3-3-3-3-3-3-|
A3-3-3-3-3-3--1-1-1-1-1-1-|
E-------------------------|

Chorus 1 part 2
e--------------------------|
B--------------------------|
G5-5-5-5-5-5-5-5-5-5-5-5-5-|
D5-5-5-5-5-5-5-5-5-5-5-5-5-|
A3-3-3-3-3-3-3-3-3-3-3-3-3-|
E--------------------------|

Intro as Verse 1 (2x)
Verse 2
Pre-Chorus
Chorus 1 part 1 (3x)
Chorus 1 part 2

Bridge
e--------------------------------|
B--------------------------------|
G7-7-7-7-7-7-7-7-5-5-5-5-5-5-5-5-|
D7-7-7-7-7-7-7-7-5-5-5-5-5-5-5-5-|
A5-5-5-5-5-5-5-5-3-3-3-3-3-3-3-3-|
E--------------------------------|

Repeat as necessary, then at the end of the bridge:
e-
B-
G5~
D5~
A3~
E-

Chorus 2
e--------------------------------------|
B--------------------------------------|
G5-5-55-5-3-3-33-3-5-5-55-5-5-5-55-5-5-|
D5-5-55-5-3-3-33-3-5-5-55-5-5-5-55-5-5-|
A3-3-33-3-1-1-11-1-3-3-33-3-3-3-33-3-3-|
E4-4-44-4-2-2-22-2-4-4-44-4------------|
                              * *  * *

Chorus 1 part 1
Chorus 1 part 2
Chorus 1 Part 1 (3x)

Outro
e--------------|
B5--3-------5~-|
G------3----5~-|
D-----------3~-|
A-----------4~-|
E--------------|

Well, that's it. I hope you enjoyed. If I made any mistakes here, you know my email.
Добавлено: 25.09.2013
Другие материалы по этой песне:
  • Аккорды и текст

Страница создана 24.08.2013
http://primanota.ru/metallica/frayed-chords.htm
Привет, Гость.
Предлагаем пройти революционный курс по гитаре.
Подарок от PrimaNota.Ru, забирай!