PrimaNota.ru - самый крупный в мире бесплатный архив песенных текстов, аккордов, табулатур и нот


Metallica - All Within My Hands - текст песни, таба, бас-таба, видео

Регистрация Запомнить меня
Войти через:  Facebook Google Twitter Vk Yandex Mail.ru

Metallica - All Within My Hands - текст песни, таба, бас-таба, видео

Печатать
Просмотров: 336
Авторы: Kirk Hammett, Bob Rock, James Hetfield, Lars Ulrich

EMail: joe_the_man3@hotmail.com
Album: St. Anger (2003)
As tabbed by Joe Muggah

Dropped D and tuned down a step (Dropped C)


Intro (palm muted harmonics with wah slowly forward and back)
d------------------------------------------------------------|
A------------------------------------------------------------|
F------------------------------------------------------------|
C--5--5--5--5--5--5--5---------------------------------------|
G--5--5--5--5--5--5--5---------------------------------------|
C--5--5--5--5--5--5--5---------------------------------------|

Riff 1
d------------------------------------------------------------|
A------------------------------------------------------------|
F------------------------------------------------------------|
C-----------------------------------------3~-----------------|
G--7m-7m---0m-0m---6m-6m---0m-0m---5m-4m--3~-----------------|
C--7m-7m---0m-0m---6m-6m---0m-0m---5m-4m--3~-----------------|


Riff 2
d------------------------------------------------------------|
A------------------------------------------------------------|
F------------------------------------------------------------|
C--7-7--0-0--6-6--0-0-----7-7--0-0--6-6--0-0-----------------|
G--7-7--0-0--6-6--0-0-----7-7--0-0--6-6--0-0-----------------|
C--7-7--0-0--6-6--0-0-----7-7--0-0--6-6--0-0-----------------|


Fill 1
d------------------------------------------------------------|
A-----------------------------------x-x-x-x------------------|
F-----------------------------------x-x-x-x------7^-----12^--|
C------------------------------------------------7^-----12^--|
G--x-x-x-----x-x-x-----x-x--x-x------------------------------|
C--x-x-x-----x-x-x-----x-x--x-x------------------------------|

Fill 2
d------------------------------------------------------------|
A------------------------------------------------------------|
F------------------------------------------------------------|
C--3^---3^-3^-3^---7-7--0-0--6-6--0-0------------------------|
G--3^---3^-3^-3^---7-7--0-0--6-6--0-0------------------------|
C--3^---3^-3^-3^---7-7--0-0--6-6--0-0------------------------|


Verse A (Guitar 1)
d------------------------------------------------------------|
A------------------------------------------------------------|
F------------------------------------------------------------|
C------------------------------------------------------------|
G--0-0-0-0--0-0-0-0--0-0-0-0--0-0-0-0------------------------|
C--0-0-3-3--0-0-3-3--0-0-3-3--0-0-3-3------------------------|


Verse B (Guitar 2)
d------------------------------------------------------------|
A------------------------------------------------------------|
F---17~-----17--\--12--14----12----10------------------------|
C----x-------x------x---x-----x-----x------------------------|
G---15~-----15--\--10--12----10-----8------------------------|
C------------------------------------------------------------|


Pre-Chorus
d------------------------------------------------------------|
A--------10----------10----------10----------10----------10--|
F-----10----10----10----10----10----10----10----10-----9-----|
C--12----------12----------12----------12-----------11-------|
G------------------------------------------------------------|
C------------------------------------------------------------|

(continued)
d------------------------------------------------------------|
A---------10--------10--------10---------10----------10------|
F--9----9----9----9----9----9----9----12----12----12----12---|
C----11--------11--------11--------12----------12------------|
G------------------------------------------------------------|
C------------------------------------------------------------|

(continued)
d------------------------------------------------------------|
A--------10----------10----------10----------10--------------|
F-----12----12----12----12----10----10----10------10p9h10----|
C--12----------12----------12----------12--------------------|
G------------------------------------------------------------|
C------------------------------------------------------------|

(continued)
d------------------------------------------------------------|
A------------------------------------------------------------|
F--10p9p7----7-----------------------------------------------|
C---------10-------------------------------------------------|
G------------------------------------------------------------|
C------------------------------------------------------------|


Chorus
d------------------------------------------------------------|
A------------------------------------------------------------|
F------------------------------------------------------------|
C--0--3--3--3--3--3--3--3--3--2--2--2--2--2--2--2--2--2------|
G--0--3--3--3--3--3--3--3--3--2--2--2--2--2--2--2--2--2------|
C--0--3--3--3--3--3--3--3--3--2--2--2--2--2--2--2--2--2------|


d------------------------------------------------------------|
A------------------------------------------------------------|
F------------------------------------------------------------|
C--5--5--5--5--5--5--5--5--2--2--2--2------------------------|
G--5--5--5--5--5--5--5--5--2--2--2--2---3m-2m-3m---3m-2m-0m--|
C--5--5--5--5--5--5--5--5--2--2--2--2---3m-2m-3m---3m-2m-0m--|


Post-Chorus                                 end on
d------------------------------------------|-----------------|
A------------------------------------------|-----------------|
F------------------------------------------|-----------------|
C--5-6-7-0--5-6-7-0--3-4-5-0---------------|-----------------|
G--5-6-7-0--5-6-7-0--3-4-5-0--0m-0m-0m-0m--|--1m-1m-1m-1m----|
C--5-6-7-0--5-6-7-0--3-4-5-0--0m-0m-0m-0m--|--1m-1m-1m-1m----|


Riff 2
d------------------------------------------------------------|
A------------------------------------------------------------|
F------------------------------------------------------------|
C--5--6--7--0----------3-------------------------------------|
G--5--6--7--0--5m--7m--3-------------------------------------|
C--5--6--7--0--5m--7m--3--5/6\5--3--5--5/6\5--3--------------|

(continued)
d------------------------------------------------------------|
A------------------------------------------------------------|
F------------------------------------------------------------|
C--5----------0----------3-----------------------------------|
G--5--6m--7m--0--5m--7m--3-----------------------------------|
C--5--6m--7m--0--5m--7m--3--5/6\5--3--5--5/6\5--3------------|


Fill 3
d------------------------------------------------------------|
A--8--\--7-------------------8--\--7-------------------------|
F------------------------------------------------------------|
C------------------------------------------------------------|
G------------------------------------------------------------|
C------------------------------------------------------------|


Riff 3A (Guitar 1)
d------------------------------------------------------------|
A------------------------------------------------------------|
F------------------------------------------------------------|
C------0------0------0----------0------0------0---------0--0-|
G--0m--0--x---0--x---0--x---0m--0--x---0--x---0--x--0m--0--0-|
C--0m--0--x---0--x---0--x---0m--0--x---0--x---0--x--0m--0--0-|

Riff 3B (Guitar 2)
d--10v---10v---10v-------------------------------------------|
A-----------------------10v---10v---10v----------------------|
F------------------------------------------------------------|
C------------------------------------------------------------|
G------------------------------------------------------------|
C------------------------------------------------------------|


Riff 4
d------------------------------------------------------------|
A------------------------------------------------------------|
F------------------------------------------------------------|
C--5h7-------------------------------------------------------|
G--5h7--0m-0m-0m-0m-0m-0m--3m-3m-5m-5m-----------------------|
C--5h7--0m-0m-0m-0m-0m-0m--3m-3m-5m-5m--6\5--3v--------------|


Riff 5
d------------------------------------------------------------|
A------------------------------------------------------------|
F------------------------------------------------------------|
C--5--5/6\5--3--5/7------------------------------------------|
G--5--5/6\5--3--5/7--0m-0m-0m-0m-0m-0m-----------------------|
C--5--5/6\5--3--5/7--0m-0m-0m-0m-0m-0m-----------------------|


Riff 6                                end on:
d------------------------------------|-----------------------|
A------------------------------------|-----------------------|
F------------------------------------|-----------------------|
C--0-3-5-5--5/7\5-3--5/7-------------|-----------------------|
G--0-3-5-5--5/7\5-3--5/7--0m-0m-0m---|-----------------------|
C--0-3-5-5--5/7\5-3--5/7--0m-0m-0m---|--7-7-7-7--5-5-5-5-----|

(end on continued)
d------------------------------------------------------------|
A------------------------------------------------------------|
F------------------------------------------------------------|
C------------------------------------------------------------|
G------------------------------------------------------------|
C--3-3-3-3--2-2-2-2------------------------------------------|


Outro A (Guitar 1, gradually slower at the end)
d------------------------------------------------------------|
A------------------------------------------------------------|
F------------------------------------------------------------|
C--7----6----3-----------7----6----3-------------------------|
G--7----6----3-----------7----6----3-------------------------|
C--7----6----3-----------7----6----3-------------------------|


Outro B (Guitar 2)
d------------------------------------------------------------|
A--6---8---8/9-----------------------------------------------|
F------------------------------------------------------------|
C------------------------------------------------------------|
G------------------------------------------------------------|
C------------------------------------------------------------|


Intro
Riff 1
Riff 2, Fill 1
Fill 2
Verse A, Verse B
Pre-Chorus
Chorus
Post-Chorus
Riff 2
Riff 1, Fill 3
Riff 2
Riff 3A, 3B
Riff 2
Verse A, B
Verse A
Pre-Chorus
Chorus
Post-Chorus
Riff 2
Riff 1, Fill 3
Riff 2
Riff 3A, 3B
Riff 4
Riff 5
Post-Chorus
Riff 6
Post-Chorus
Riff 2
Riff 1, Fill 3
Riff 2
Verse A, B
Riff 2
Outro A
Outro A, B
Добавлено: 16.07.2012
Другие материалы по этой песне:

Страница создана 27.02.2012
http://primanota.ru/metallica/all-within-my-hands-chords.htm
Привет, Гость.
Предлагаем пройти революционный курс по гитаре.
Подарок от PrimaNota.Ru, забирай!