PrimaNota.ru - самый крупный в мире бесплатный архив песенных текстов, аккордов, табулатур и нот


Memphis May Fire - Cowbells Makin A Comeback - таба, бас-таба, видео

Регистрация Запомнить меня
Войти через:  Facebook Google Twitter Vk Yandex Mail.ru

Memphis May Fire - Cowbells Makin A Comeback - таба, бас-таба, видео

Печатать
Просмотров: 176
Finally ! I could figure out this song, well 95% of it. I'ts and awesome song 
and band and I love them. Enjoy. Please any suggestion let me know, i want to 
perfect this song, and the solo please, help. Try to be as more as accurrate
to tune your guitar. cya 



Intro
Gtr.1
D#|----------------------------------------------------|
A#|----------------------7---------------------7-------|
F#|----------------------10--------------------10------|
C#|--------------------3------------------3------------|
G#|---------3-------3h5---------3------3h5-5p3---------|
C#|----0-3h5--p5-3h5-------0-3h5-p5-3h5----------------|

Gtr1.
D#|--------------------------------------------------|
A#|----------------------7---------------------------|
F#|----------------------10---------------5-4-3-5*---|
C#|--------------------3-----------------3-----3-----|
G#|---------3-------3h5---------3--------------------|
C#|----0-3h5--p5-3h5-------0-3h5--p5-3h5-------------|
-
Verse
Gtr.1&2
D#|----------------------------------------------------|
A#|----------------------7---------------------7-------|
F#|----------------------10--------------------10------|
C#|--------------------3------------------3------------|
G#|---------3-------3h5---------3------3h5-5p3---------|
C#|----0-3h5--p5-3h5-------0-3h5-p5-3h5----------------|

D#|----------------------------------------------------|
A#|----------------------7---------------------7-------|
F#|----------------------10--------------------10------|
C#|--------------------3------------------3------------|
G#|---------3-------3h5---------3------3h5-5p3---------|
C#|----0-3h5--p5-3h5-------0-3h5-p5-3h5----------------|

Gtr.2
D#|----------------------------------------------------|
A#|----------------------7---------------------7-------|
F#|----------------------10--------------------10------|
C#|--------------------3------------------3------------|
G#|---------3-------3h5---------3------3h5-5p3---------|
C#|----0-3h5--p5-3h5-------0-3h5-p5-3h5----------------|

Gtr.1
Solo(It's just the intro part)
D#|---------------------------------------------------------|
A#|--------------------15-14p12h14p12--12-------------------|
F#|----------------------------------14--14p12---------12*--|
C#|-------------------------------------------14--14p12-----|
G#|---------------------------------------------------------|
C#|---------------------------------------------------------|

(Solo part how's isnt here yet)
Gtr.1
Gtr.2
D#|----------------------------------------------------|
A#|----------------------7---------------------7-------|
F#|----------------------10--------------------10------| x2
C#|--------------------3------------------3------------|
G#|---------3-------3h5---------3------3h5-5p3---------|
C#|----0-3h5--p5-3h5-------0-3h5-p5-3h5----------------|

Interlude (Clean)
Gtr.1
D#|----------------------------------------------|
A#|---10----------6---------------------10-------|
F#|-----10-9-------7-7/9-5-------7h10-----10-----|
C#|--8--------------------(7)-7h9------8----8----|
G#|-8-----------0---------------------8----------|
C#|----------------------------------------------|


Gtr.1
D#|------------------------------------------------------------|
A#|---10----10------10--------10-8------10-------10-8-----10---|
F#|-----10----10------10----10----10------10---10----10-----10-|
C#|--8-----8---------------8-----------8-----8-----------8-----|
G#|-8-------------8-------8-----------8-----------------8------|
C#|------------------------------------------------------------|

Gtr.2
Interlude
Gtr.1
D#|---15--15-----15-------15--15-----15---12-----12-12-----15----|
A#|-----13--13--------13---------13-----13---10--------10-----13-|
F#|--------------------------------------------------------------|
C#|--------------------------------------------------------------|
G#|--------------------------------------------------------------|
C#|--------------------------------------------------------------|

Gtr.1&2 (Dist)[Figure out the strumming&time of each one, it's not hard]

D#|---(0)|----0-|----|---|----|
A#|---(0)|----6-|----|---|-10-|
F#|------|----7-|-12-|-9-|-10-|
C#|-0----|-0--7-|-10-|-7-|-8--|
G#|-0----|-0----|-10-|-7-|-8--|
C#|-0----|-0----|-10-|-7-|-0--|

"Outrolude"
Gtr.1&2
D#|----------------------------------------------|
A#|----666666666666---66666666666----------------|
F#|----999999999999---99999999999-----3*---------|
C#|-0--------------------------------------------|
G#|-0---------------00---------------------------|
C#|-0---------------00-----------00-00-----------|
                                .. ..

Gtr.1&2
D#|----------------------------------------------|
A#|----666666666666---66666666666----------------|
F#|----999999999999---99999999999----------------|
C#|-0--------------------------------------------|
G#|-0---------------00------------12\------------|
C#|-0---------------00------------12\------------|
    .                             

Gtr.1&2
D#|----------------------------------------------|
A#|----666666666666---66666666666----------------|
F#|----999999999999---99999999999----------------|
C#|-0--------------------------------------------|
G#|-0---------------00---------------------------|
C#|-0---------------00-----------00-00-----------|
                                 .. ..

Gtr.1&2                           [figure out the strumming and time]
D#|---------------------------------------------------|
A#|----666666666666---66666666666-----3333------------|
F#|----999999999999---99999999999-----4444------------|
C#|-0---------------------------------5555-7777\------|
G#|-0---------------00-------------33-5555-7777\------|
C#|-0---------------00-------------33-0000-7777\------|

Pre-verse
Gtr.1
D#|----------------------------------------------------|
A#|----------------------7---------------------7-------|
F#|----------------------10--------------------10------|
C#|--------------------3------------------3------------|
G#|---------3-------3h5---------3------3h5-5p3---------|
C#|----0-3h5--p5-3h5-------0-3h5-p5-3h5----------------|

Gtr.1
D#|----------------------------------------------------|
A#|----------------------7-------------13-12-10--12*---|
F#|----------------------10----------10--------13------|
C#|--------------------3-------------------------------|
G#|---------3-------3h5--------------------------------|
C#|----0-3h5--p5-3h5-------0-3h5-----------------------|

Verse
Gtr.1&2
D#|----------------------------------------------------|
A#|----------------------7---------------------7-------|
F#|----------------------10--------------------10------|
C#|--------------------3------------------3------------|
G#|---------3-------3h5---------3------3h5-5p3---------|
C#|----0-3h5--p5-3h5-------0-3h5-p5-3h5----------------|

D#|----------------------------------------------------|
A#|----------------------7---------------------7-------|
F#|----------------------10--------------------10------|
C#|--------------------3------------------3------------|
G#|---------3-------3h5---------3------3h5-5p3---------|
C#|----0-3h5--p5-3h5-------0-3h5-p5-3h5----------------|   (repeat once)


Gtr.1&2 (It's only chords, figure out time and strumming)
D#|-----|----|-0-|----|---|
A#|--10-|----|-6-|-10-|-9-|
F#|--10-|-12-|-7-|-10-|-7-|
C#|--8--|-10-|-7-|-8--|-7-|
G#|--8--|-10-|-0-|-8--|-7-|
C#|--0--|-10-|---|----|---| (x2)

Gtr.1&2
D#|----------------------------------------------------------------------------------|
A#|----------------------------------------------------------------------------------|
F#|-------1414-1414-1212-1212------1414-1212--------------8888888888b----888888888-5-|
C#|-------1212-1212-1010-1010------1212-1010---3-0-5-0-77-8888888888b----888888888-5-|
G#|--1010---------------------1010-----------0-3-0-5-0-77------------1010------------|
C#|--1010---------------------1010-----------0-3-0-5-0-77------------1010------------|


Gtr.1&2
D#|------------------------------------------------------------------------|
A#|------------------------------------------------------------------------|
F#|-------1414-1414-1212-1212------1414-1212-------------------------------|
C#|-------1212-1212-1010-1010------1212-1010---3-0-5-0-77-7\--7\-----------|
G#|--1010---------------------1010-----------0-3-0-5-0-77-7\--7\-----------|
C#|--1010---------------------1010-----------0-3-0-5-0-77-7\--7\-----------|

Gtr.1&2
D#|---------------------------------------------------------------------|
A#|---------------------------------------------------------------------|
F#|-------1414-1414-1212-1212------1414-1212--------------999-----------|
C#|-------1212-1212-1010-1010------1212-1010---3-0-5-0-77-777-----------|
G#|--1010---------------------1010-----------0-3-0-5-0-77-777-----------|
C#|--1010---------------------1010-----------0-3-0-5-0-77-777-----------|

Introutro
Gtr.1&2 (It's only chords, figure out time and strumming)

D#|-----|----|-0-|----|---|In the last time,just play the first 4th
A#|--10-|----|-6-|-10-|-9-|chords from bottom to "up"
F#|--10-|-12-|-7-|-10-|-7-|so i'll sound better
C#|--8--|-10-|-7-|-8--|-7-|and they are in the right order, so just play
G#|--8--|-10-|-0-|-8--|-7-|them as many times as you hear in the song.
C#|--0--|-10-|---|----|---|                         (x4)


Outro
Gtr.1&2
D#|----------------------------------|
A#|---7-7------7------7-7------------|
F#|---1010-----10-----1010-----------|
C#|-0------0-00---0-00----0-00-------|
G#|-0------0-00---0-00----0-00-------|
C#|-0------0-00---0-00----0-00-------|   (x2)
             ..     ..      ..

Well that's it. Any suggestion or something, just let me know. Sorry if the solo it's not 100%. 
Добавлено: 27.05.2012
Другие материалы по этой песне:

Страница создана 24.03.2012
http://primanota.ru/memphis-may-fire/cowbells-makin-a-comeback-chords.htm
Привет, Гость.
Предлагаем пройти революционный курс по гитаре.
Подарок от PrimaNota.Ru, забирай!