PrimaNota.ru - самый крупный в мире бесплатный архив песенных текстов, аккордов, табулатур и нот


Melvins - Nude With Boots - бас-таба, видео

Регистрация Запомнить меня
Войти через:  Facebook Google Twitter Vk Yandex Mail.ru

Melvins - Nude With Boots - бас-таба, видео

Печатать
Просмотров: 77
Уроки эстрадного вокала в Санкт-Петербурге
MELVINS-Nude with boots
bass tab 
tabbed by ear 
enjoy:)

MAIN RIFF:
G|-----------------------------------------------------------------
D|----------9-7------/12p11--7------7h9-7--7---7-----7h9-7--7---7--
A|-7--7-9-7-----7-9-------------7h9--------------7h9---------------
E|-----------------------------------------------------------------

                                                  ^
G|-------7-6------11-11-11-11/12-12
D|-7--7--------7h9/0--0--0--0--0--0
A|--------------------------------        <    play these two twice
E|--------------------------------   
         
Then....
G|---------------------------
D|---------------------------
A|-0-0-0-2-0-5-4-2-4-2p0-2p0-
E|---------------------------

|----------------------------------------------------------------------
|----------------------------------------------------------------------
|-0-4h5/9-7--0-4h5-10-9--0-4h5/9-7--5-4-5-4-5-4-5-4-5-4-5-4-5-4-5-4---0
|----------------------------------------------------------------------


verse:
|-14-14-14-14--12-12-12-12-11---------------
|-14-14-14-14--12-12-12-12-11---------------
|-12-12-12-12--10-10-10-10--9----0--4--5--7-
|-------------------------------------------
Добавлено: 26.02.2016
Другие материалы по этой песне:
  • Аккорды и текст

Страница создана 26.02.2016
http://primanota.ru/melvins/nude-with-boots-chords.htm
Привет, Гость.
Предлагаем пройти революционный курс по гитаре.
Подарок от PrimaNota.Ru, забирай!