PrimaNota.ru - самый крупный в мире бесплатный архив песенных текстов, аккордов, табулатур и нот


Melvins - Black Bock - текст песни, таба, видео

Регистрация Запомнить меня
Войти через:  Facebook Google Twitter Vk Yandex Mail.ru

Melvins - Black Bock - текст песни, таба, видео

Печатать
Просмотров: 251
Авторы музыки: Buzz Osborne
Авторы текста: Buzz Osborne
  Black Bock
by The MELVINS

bennield@hotmail.com

/ slide up 
\ slide down    
^ bend up and back down


  Intro - play 2 times:

E|---------------------------------|---------------------------------|
B|---------------------------------|---------------------------------|
G|---------------------------------|---------------------------------|
D|---------------------------------|---------5-----------------------|
A|---------2-----3---3-2-------2---|-------------5-------------------|
E|-3---5-----5-3---------5-3-5---5-|-3-------------------------------|
  mute all


  Verse: alternate G, C, A (repeat 4x) and D


  Then play this 2 times:

E|---------------------------------|---------------------------------|
B|---------------------------------|---------------------------------|
G|---------------------------------|---------------------------------|
D|---------------------------------|---------------------------------|
A|-------------2/3-3-3-3-3-----3---|-------------3-------------------|
E|-3-3-3-3-----------------------5-|-3-3-3-3-------------------------|
  mute all


  Solo:

   1   2   3   4   1   2   3   4     1   2   3   4   1   2   3   4
E|---------------------------------|----------/5-3---\12-10----------
B|---------------------------------|-3/5-3---------------------------
G|-------------------------------4-|---------------------------------
D|\7---5---------5---5-------5-7---|---------------------------------
A|---------7-6-5-------7-5-7-------|---------------------------------
E|---------------------------------|---------------------------------

E|---------------------------------|---------------------------------
B|---------------------------------|---------------------------------
G|---------------------------------|---------------------------------
D-\9---7---------5---5-----5-----5^|---------------------------------
A|---------7-6-5-------7-6---7-6---|---------------------------------
E|---------------------------------|---------------------------------
  
E|---------------------------------|---------------------------------
B|---------------------------------|---------------------------------
G|---------------------------------|---------------------------------
D|-------------5-----5-----5--5-8^-|---------------------------------
A|---5-----5-7-----7-----7--7------|-5-------------------------------
E|/7-----7-------------------------|---------------------------------

E|---------------------------------|---------------------------------|
B|---------------------------------|---------------------------------|
G|---------------------------------|---------------------------------|
D|---------------------------------|---------------------------------|
A|-5-------------------------------|---------------------------------|
E|---7-5-3-5-3-0-3---3-0-3-5-3-0-3^|---------------------------------|


  Outro - strum this chord sequence 4 times:

E|-2-------------------------------|-5-------------------------------
B|-3-------------------------------|-6-------------------------------
G|-2-------------------------------|-5-------------------------------
D|---------------------------------|---------------------------------
A|---------------------------------|---------------------------------
E|---------------------------------|---------------------------------

E|-4-------------------------------|-3-------------------------------|
B|-5-------------------------------|-4-------------------------------|
G|-4-------------------------------|-3-------------------------------|
D|---------------------------------|---------------------------------|
A|---------------------------------|---------------------------------|
E|---------------------------------|---------------------------------|
Добавлено: 07.05.2012
Другие материалы по этой песне:
  • Аккорды и текст

Страница создана 07.05.2012
http://primanota.ru/melvins/black-bock-chords.htm
Привет, Гость.
Предлагаем пройти революционный курс по гитаре.
Подарок от PrimaNota.Ru, забирай!