PrimaNota.ru - самый крупный в мире бесплатный архив песенных текстов, аккордов, табулатур и нот


Melvins - Amazon 1 2 - таба, видео

Регистрация Запомнить меня
Войти через:  Facebook Google Twitter Vk Yandex Mail.ru

Melvins - Amazon 1 2 - таба, видео

Печатать
Просмотров: 74


The Melvins
amazon and AMAZON
from The Maggot LP

ben.nield@gmail.com

Drop-D Tuning

	     amazon

 Verse:
|--------------------------------------------------------------|
|--------------------------------------------------------------|
|--------------------------------------------------------------|
|--------------------------------------------------------------|
|-0-0-0-0-0-0-0-0-0-0-0-3--4--3--0-0-0-0-0-0-6--6--x--6--6-3-0-|
|-0-0-0-0-0-0-0-0-0-0-0-3--4--3--0-0-0-0-0-0-6--6--x--6--6-3-0-|
  . . . . . . . . . . .          . . . . . .

 Chorus:
|--------------------------------------------------------------------------|
|--------------------------------------------------------------------------|
|-5--5-5-5-5-5-5-5-7--7-7-7-7-7-7-7-8--8-8-8-8-8-8-8-3--3-3-3/10--10-10-10-|
|-5--5-5-5-5-5-5-5-7--7-7-7-7-7-7-7-8--8-8-8-8-8-8-8-3--3-3-3/10--10-10-10-|
|-3--3-3-3-3-3-3-3-5--5-5-5-5-5-5-5-6--6-6-6-6-6-6-6-1--1-1-1/8---8--8--8--|
|--------------------------------------------------------------------------|

 Post-Chorus:
|----------------------------------|
|----------------------------------|
|----------------------------------|
|----------------------------------|
|-0-0-0-0-4-0-0-0-4-0-0-6--5--3--0-|
|-0-0-0-0-4-0-0-0-4-0-0-6--5--3--0-|
  . . . .   . . .   . .

 Play that a few times, then let this ring:
|----------------------------
|----------------------------
|-5--------------------------
|-5--------------------------
|-3--------------------------
|----------------------------


	     AMAZON

 Intro/Verse:
|---------------------------------|
|---------------------------------|
|---------------------------------|
|---------------------------------|
|-0---0---0-0-0-0-0---0---0-0-0-0-|
|-0---0---0-0-0-0-0---0---0-0-0-0-|
  .   .   . . . . .   .   . . . .

 Main Riff:
|-----------------------------------------------------------------|
|-----------------------------------------------------------------|
|-----------------------------------------------------------------|
|-------------------------------------------------2---1-----------|
|---------0-0-0-0-6---5---0-0-0-0---------0-0-0-0---------0-0-0-0-|
|-2---1---0-0-0-0---------0-0-0-0-4---3---0-0-0-0---------0-0-0-0-|
          . . . .         . . . .         . . . .         . . . .

|-----------------------------------------------------------------|
|-----------------------------------------------------------------|
|-----------------------------------------------------------------|
|-5---4-----------------------------------------------------------|
|---------0-0-0-0---------0-0-0-0-6---5---0-0-0-0-6---5---0-0-0-0-|
|---------0-0-0-0-2---1---0-0-0-0---------0-0-0-0---------0-0-0-0-|
          . . . .         . . . .         . . . .         . . . .

 Post-Main Riff/Outro:
|-----------------------------------------------------------------|
|-----------------------------------------------------------------|
|-----------------------------------------------------------------|
|-----------------------------------------------------------------|
|-6---5---0-0-0-0-6---5---0-0-0-0-6---5---0-0-0-0-6---5---0-0-0-0-|
|---------0-0-0-0---------0-0-0-0---------0-0-0-0---------0-0-0-0-|
          . . . .         . . . .         . . . .         . . . . 

Добавлено: 16.08.2013
Другие материалы по этой песне:
  • Аккорды и текст

Страница создана 16.08.2013
http://primanota.ru/melvins/amazon-1-2-chords.htm
Привет, Гость.
Предлагаем пройти революционный курс по гитаре.
Подарок от PrimaNota.Ru, забирай!