PrimaNota.ru - самый крупный в мире бесплатный архив песенных текстов, аккордов, табулатур и нот


Megadeth - Killing Is My Business And Business Is Good - текст песни, таба, бас-таба, видео

Регистрация Запомнить меня
Войти через:  Facebook Google Twitter Vk Yandex Mail.ru

Megadeth - Killing Is My Business And Business Is Good - текст песни, таба, бас-таба, видео

Печатать
Просмотров: 458
Авторы музыки: Dave Mustaine
Авторы текста: Dave Mustaine
Killing Is My Business...And Business Is Good!
Transcribed by Mark Yeary (JCPose@aol.com)

Tune down 1/4 step.

Feedback intro...then:

D)---6-/-----5-/-----4-/----
A)---4-/-----3-/-----2-/----
E)--------------------------


G)------------6--------------------------------
D)----4-/-6------6-5-4-2-----------------------
A)-0--2-/-4---------------4-3-2----------------
E)-------------------------------4-3-2-1-0-----

D)---------------------------------------
A)-4-/-5-\-4--2-------4-/-5-\-4--2-------
E)-2-/-3-\-2--0--0-0--2-/-3-\-2--0-------


G)------------6--------------------------------
D)----4-/-6------6-5-4-2-----------------------
A)-0--2-/-4---------------4-3-2----------------
E)-------------------------------4-3-2-1-0-----

D)---------------------------------------
A)-4-/-5-\-4--2-------4-/-5-\-4--2-------
E)-2-/-3-\-2--0--0-0--2-/-3-\-2--0-------


G)------------6--------------------------------
D)---------6-----6-5-4-2-----------------------
A)--4------4--------------4-3-2----------------
E)--2--0-------------------------4-3-2-1-0-----

D)---------------------------------------
A)-4-/-5-\-4--2-------4-/-5-\-4--2-------
E)-2-/-3-\-2--0--0-0--2-/-3-\-2--0-------


G)-----------6--------------------------------
D)----4--6------6-5-4-2-----------------------
A)-0--2--4---------------4-3-2----------------
E)------------------------------4-3-2-1-0-----

D)--------------------------------------------
A)-4-/-5-\-4--2-------4-/-5-\-4--2---4--------
E)-2-/-3-\-2--0--0-0--2-/-3-\-2--0---2--0-----


Verse:

D)--6---6-5-4-2-6-5-4-2------------
A)--4------------------------------
E)------------------------2-0------

G)------4-h-6-p-4-----------------------
D)--6--------------6-------9------------
A)--4----------------------7-----2------
E)----------------------0-----2--0------

Last time:

D)-----------------
A)---------6-------
E)--2--0---4-------  


Faster  (not completely sure here)

D)-----------2------------------4-----------
A)--2-2-4-4-----4-4-4--2-2-4-4-----4-4-4----
E)------------------------------------------

D)--4-h-5-p-4-p-2--4-p-2------------------------
A)-------------------------4-4-3-3-2-2----4-----
E)----------------------------------------2-----


D)-----------2------------------4-----------
A)--2-2-4-4-----4-4-4--2-2-4-4-----4-4-4----
E)------------------------------------------

G)---------------------------------------6----
D)--4-h-5-p-4-p-2--4-p-2-----------------4----
A)-------------------------4-4-3-3-2-2--------
E)--------------------------------------------

        "ten thousand up front"

D)---------------------------9----
A)--4-4-4-4-4-4-4-4-4-4-4-4--7----
E)--------------------------------

D)---------------------------9----
A)--4-4-4-4-4-4-4-4-4-4-4-4--7----   etc.
E)--------------------------------

Then:

D)--2--4--2------2--4----------------------------9---
A)--0--2--0---6--0--2--4-4-4-4-4-4-4-4-4-4-4-4---7---
E)------------4--------------------------------------


Last time:

G)------------------------6-----------------------------
D)--2--4--2------2--4--6-----6-5-4-2--------------------
A)--0--2--0---6--0--2--4--------------4-3-2-------------
E)------------4------------------------------4-3-2-1-0--


Fill before 3rd verse:

D)--7-------6-------5----------------6------
A)--5--0-0--4--0-0--3--0-0--5-4-5-7--4------
E)------------------------------------------


Outro:

D)--9-------------------------------------------
A)--7------------------5-6-7--------------------
E)----0-0-0-0-0-0-0-0--3-4-5-5-5-5-5-5-5-5-5----

D)--2-4-5------------------2-5--------------------------
A)--0-2-3-3-3-3-3-3-3-3-3--0-3--4------------------4-7--
E)------------------------------2-2-2-2-2-2-2-2-2--2-5--


Mark
JCPose@aol.com
Добавлено: 14.07.2012
Другие материалы по этой песне:

Страница создана 19.03.2012
http://primanota.ru/megadeth/killing-is-my-business-and-business-is-good-chords.htm
Привет, Гость.
Предлагаем пройти революционный курс по гитаре.
Подарок от PrimaNota.Ru, забирай!