PrimaNota.ru - самый крупный в мире бесплатный архив песенных текстов, аккордов, табулатур и нот


Megadeth - Dialectic Chaos - таба, бас-таба, видео

Регистрация Запомнить меня
Войти через:  Facebook Google Twitter Vk Yandex Mail.ru

Megadeth - Dialectic Chaos - таба, бас-таба, видео

Печатать
Просмотров: 374
Авторы музыки: Dave Mustaine

-------------------------------------------------------------------------------
__________________Dialect Chaos Intro__________ - Megadeth____
-------------------------------------------------------------------------------
Tabbed by: Kerry Fan1
http://profile.ultimate-guitar.com/Kerry+fan1/

Tuning: Standard

Song: Dialect Chaos
Artist: Megadeth
Album: Endgame


Intro
E|---------------------------------------------------------------------------||
B|---------------------------------------------------------------------------||
G|-o---------------------------------------------------------------------o---||
D|-------------5()-----------------5()--------------5()----------------------||
A|-o--7()---5--3()-5-----7()---5---3()-5----7()--5--3()-5--3()-5---------o---||
E|----5()---3------3-----5()---3-------3----5()--3------3--1()-3-------------||

Verse 1
E|----------------------------------------------|play verse 1, 3 times
B|----------------------------------------------|
G|----------------------------------------------|
D|--2---------------2-------5-------------5-----|
A|--0—--00---00-----0---5---3---33---33---3--5--|
E|----------------------3--------------------3--|
        **   **                 **   **
Then
E|---------------------------------------------------------------------------|
B|---------------------------------------------------------------------------|
G|---------------------------------------------------------------------------|
D|---------------------------------------------------------------------------|
A|-3-------------3-----------5------------5----------------------------------|
E|-1---11---11---1---11--11--3---33---33--3--33--33--------------------------|
       **   **       **  **      **   **     **  **
After that
E|--------------------------------play 12 times-------|
B|----------------------------------------------------|
G|----------------------------------------------------|
D|----------------------0--h-5--h-7-------------------|
A|---0---h-5---h-7------------------------------------|
E|----------------------------------------------------|

###############################################################

o||
o|| play again


*  palm mute(p.m.)


h   hammer-on

()   hold note

################################################################
Добавлено: 29.03.2012
Другие материалы по этой песне:

Страница создана 29.03.2012
http://primanota.ru/megadeth/dialectic-chaos-chords.htm
Привет, Гость.
Предлагаем пройти революционный курс по гитаре.
Подарок от PrimaNota.Ru, забирай!