PrimaNota.ru - самый крупный в мире бесплатный архив песенных текстов, аккордов, табулатур и нот


Megadeth - 1320 - текст песни, таба, видео

Регистрация Запомнить меня
Войти через:  Facebook Google Twitter Vk Yandex Mail.ru

Megadeth - 1320 - текст песни, таба, видео

Печатать
Просмотров: 185
Авторы музыки: Dave Mustaine
Авторы текста: Dave Mustaine
No solos.
Hell, rock on!
// maxalot

E-------------------------------------------------------------|
B-------------------------------------------------------------|
G-------------------------------------------------------------|
D--7----5-7-8p7p5---5h7---------------------------------------|
A-----7-----------7-----0-0-0-0-0-0-0-0-0-0-0-0---------------|
E-------------------------------------------------------------|x3
                        Pm.....................


E-------------------------------------------------------------|
B-------------------------------------------------------------|
G--------8p7p5------------------------------------------------|
D----5-7-------7-5p7----5-7-8p7p5---5p7-----------------------|
A--7------------------7-----------7---------------------------|
E-------------------------------------------------------------|


E-------------------------------------------------------------|
B-------------------------------------------------------------|
G-------------------------------------------------------------|
D----5-7-8-7-8-7-----5-7-8-7-8--------------------------------|
A----5-7-8-7-8-7-----5-7-8-7-8--------------------------------|
E--0-3-5-6-5-6-5---0-3-5-6-5-6--------------------------------|


E-------------------------------------------------------------|
B-------------------------------------------------------------|
G-------------------------------------------------------------|
D--7--------5-7-8--------10-9-8-7-----------------------------|
A--7--------5-7-8--------10-9-8-7-----------------------------|
E--5-5-5-5--3-5-6-6-6-6--8--7-6-5-----------------------------|x3
     Pm...        Pm...


E-------------------------------------------------------------|
B-------------------------------------------------------------|
G-------------------------------------------------------------|
D--7--------5-7-8--------10-9-8-------------------------------|
A--7--------5-7-8--------10-9-8-------------------------------|
E--5-5-5-5--3-5-6-6-6-6--8--7-6-------------------------------|x1
     Pm...        Pm...


E-------------------------------------------------------------|
B-------------------------------------------------------------|
G-------------------------------------------------------------|
D--7--------5-7-8--------10-9-8-7-----------------------------|
A--7--------5-7-8--------10-9-8-7-----------------------------|
E--5-5-5-5--3-5-6-6-6-6--8--7-6-5-----------------------------|x4
     Pm...        Pm...


E-------------------------------------------------------------|
B----------------------0--------------------------------------|
G--------------2b3-------1-----2------------------------------|
D--4-4-2-4---------3-------3----------------------------------|
A--4-----------------4-------4--------------------------------|
E--2-------2-2------------------------------------------------|x1
           Pm.


E-------------------------------------------------------------|
B------------------------0------------------------------------|
G----------------2b3-------1-----2----------------------------|
D------4-2-4---------3-------3--------------------------------|
A----------------------4-------4------------------------------|
E--2-2-------2-2----------------------------------------------|x3
   Pm.       Pm.


E----------------------------------------------------------------------|
B----------------------------------------------------------------------|
G--2-------------------------------------------------------------------|
D--2--------------------------------4-2-4------------------------------|
A--0-0-0-0-0-0-0-2-3-2-0-2----------------------------4p2h2------------|
E--------------------------3~---2-2-------2-2-2-2-2-2-------2-2-4p2h4--|x1
     Pm.........                Pm.       Pm.........       Pm.



E----------------------------------------------------------------------|
B----------------------------------------------------------------------|
G--2-------------------------------------------------------------------|
D--2--------------------------------4-2-4------------------------------|
A--0-0-0-0-0-0-0-2-3-2-0-2----------------------------4p2h2------------|
E--------------------------3-5--2-2-------2-2-2-2-2-2-------2-2-4p2h4--|x1
     Pm.........           Pm......       Pm.........       Pm.



E----------------------------------------------------------------------|
B----------------------------------------------------------------------|
G--2-------------------------------------------------------------------|
D--2--------------------------------4-2-4------------------------------|
A--0-0-0-0-0-0-0-2-3-2-0-2----------------------------4p2h2------------|
E--------------------------3~---2-2-------2-2-2-2-2-2-------2-2-4p2h4--|x2
     Pm.........                Pm.       Pm.........       Pm.


                       Dave Mustaine is a genius!
Добавлено: 13.10.2013
Другие материалы по этой песне:
  • Аккорды и текст

Страница создана 23.08.2013
http://primanota.ru/megadeth/1320-chords.htm
Привет, Гость.
Предлагаем пройти революционный курс по гитаре.
Подарок от PrimaNota.Ru, забирай!