PrimaNota.ru - самый крупный в мире бесплатный архив песенных текстов, аккордов, табулатур и нот


Matisyahu - Chop 'em Down - текст песни, таба, видео

Регистрация Запомнить меня
Войти через:  Facebook Google Twitter Vk Yandex Mail.ru

Matisyahu - Chop 'em Down - текст песни, таба, видео

Печатать
Просмотров: 157
Artist: Matisyahu
Song: Chop 'Em Down (Live)
Album: Live At Stubb's
Any Suggestions? Questions? Swearing? etc? omni66(at)gmail(dot)com ;o)
Please Rate and Comment.. it will just take a minute or even less.

Since I couldn't find any perfect tab for this song, i've decided to tab it myself :O) 
it goes: 

Standar Tuning Guitar (EADGBe)

Notation:
u - upstroke
d - downstroke
sd. - slow downstroke

  Intro:


e |--------------------|--------------------|
B |--------------------|--------------------|
G |--------------------|--------------------| x2
D |---------2--0-2-----|---------2--0-2-5---|
A |---0--3---------2---|---0--3-------------|
E |--------------------|--------------------|


  1st Chorus: From the forest itself...

      u  u  u  u       u  u  u  u
e |---5--5--5--5---|---7--7--7--7---|
B |---5--5--5--5---|---8--8--8--8---|
G |---5--5--5--5---|---9--9--9--9---| x4
D |----------------|----------------|
A |----------------|----------------|
E |----------------|----------------|


   1st Verse: Time flies by like clouds...

      du  du  du  du       du  du  du  du
e |---55--55--55--55---|---77--77--77--77---|
B |---66--66--66--66---|---88--88--88--88---|
G |---77--77--77--77---|---99--99--99--99---|
D |--------------------|--------------------|
A |--------------------|--------------------|
E |--------------------|--------------------|

      du  du  du  du       du  du  du  du  u
e |---55--55--55--55---|---77--77--77--77--6--|
B |---66--66--66--66---|---88--88--88--88--7--|
G |---77--77--77--77---|---99--99--99--99--8--|
D |--------------------|----------------------|
A |--------------------|----------------------|
E |--------------------|----------------------|

      du  du  du  du       du  du  du  du
e |---55--55--55--55---|---77--77--77--77---|
B |---66--66--66--66---|---88--88--88--88---|
G |---77--77--77--77---|---99--99--99--99---|
D |--------------------|--------------------|
A |--------------------|--------------------|
E |--------------------|--------------------|

      d d d d d d d d d d d  sd. d
e |---5-5-5-5-5-5-5-5-5-5-5--5---6---|
B |---6-6-6-6-6-6-6-6-6-6-6--6---7---|
G |---7-7-7-7-7-7-7-7-7-7-7--7---9---|
D |--------------------------7---9---|
A |----------------------------------|
E |----------------------------------|


   2nd Chorus: From the forest itself...

      u  u  u  u       u  u  u  u
e |---5--5--5--5---|---7--7--7--7---|
B |---5--5--5--5---|---8--8--8--8---|
G |---5--5--5--5---|---9--9--9--9---| x4
D |----------------|----------------|
A |----------------|----------------|
E |----------------|----------------|


   2nd Verse: Patterns engraved not so easily erased...

      du  du  du  du       du  du  du  du
e |---55--55--55--55---|---77--77--77--77---|
B |---66--66--66--66---|---88--88--88--88---|
G |---77--77--77--77---|---99--99--99--99---|
D |--------------------|--------------------|
A |--------------------|--------------------|
E |--------------------|--------------------|

      du  du  du  du       du  du  du  du  u
e |---55--55--55--55---|---77--77--77--77--6--|
B |---66--66--66--66---|---88--88--88--88--7--|
G |---77--77--77--77---|---99--99--99--99--8--|
D |--------------------|----------------------|
A |--------------------|----------------------|
E |--------------------|----------------------|

      du  du  du  du       du  du  du  du
e |---55--55--55--55---|---77--77--77--77---|
B |---66--66--66--66---|---88--88--88--88---|
G |---77--77--77--77---|---99--99--99--99---|
D |--------------------|--------------------|
A |--------------------|--------------------|
E |--------------------|--------------------|

      d d d d d d d d d d d  sd. d
e |---5-5-5-5-5-5-5-5-5-5-5--5---6---|
B |---6-6-6-6-6-6-6-6-6-6-6--6---7---|
G |---7-7-7-7-7-7-7-7-7-7-7--7---9---|
D |--------------------------7---9---|
A |----------------------------------|
E |----------------------------------|


   3rd Chorus: From the forest itself...

      u  u  u  u       u  u  u  u
e |---5--5--5--5---|---7--7--7--7---|
B |---5--5--5--5---|---8--8--8--8---|
G |---5--5--5--5---|---9--9--9--9---| x4
D |----------------|----------------|
A |----------------|----------------|

E |----------------|----------------|


   3rd Verse: Joseph descended sold as a slave...

      du  du  du  du       du  du  du  du
e |---55--55--55--55---|---77--77--77--77---|
B |---66--66--66--66---|---88--88--88--88---|
G |---77--77--77--77---|---99--99--99--99---|
D |--------------------|--------------------|
A |--------------------|--------------------|
E |--------------------|--------------------|

      du  du  du  du       du  du  du  du  u
e |---55--55--55--55---|---77--77--77--77--6--|
B |---66--66--66--66---|---88--88--88--88--7--|
G |---77--77--77--77---|---99--99--99--99--8--|
D |--------------------|----------------------|
A |--------------------|----------------------|
E |--------------------|----------------------|

      du  du  du  du       du  du  du  du
e |---55--55--55--55---|---77--77--77--77---|
B |---66--66--66--66---|---88--88--88--88---|
G |---77--77--77--77---|---99--99--99--99---|
D |--------------------|--------------------|
A |--------------------|--------------------|
E |--------------------|--------------------|

      d d d d d d d d d d d  sd. d
e |---5-5-5-5-5-5-5-5-5-5-5--5---6---|
B |---6-6-6-6-6-6-6-6-6-6-6--6---7---|
G |---7-7-7-7-7-7-7-7-7-7-7--7---9---|
D |--------------------------7---9---|
A |----------------------------------|
E |----------------------------------|


   Alt. 4th Verse: Joseph rose to power...

      u  u  u  u       u  u  u  u
e |---5--5--5--5---|---7--7--7--7---|
B |---5--5--5--5---|---8--8--8--8---|
G |---5--5--5--5---|---9--9--9--9---| x4
D |----------------|----------------|
A |----------------|----------------|
E |----------------|----------------|


   5th Verse: Moshe was saved...

      du  du  du  du       du  du  du  du
e |---55--55--55--55---|---77--77--77--77---|
B |---66--66--66--66---|---88--88--88--88---|
G |---77--77--77--77---|---99--99--99--99---|
D |--------------------|--------------------|
A |--------------------|--------------------|
E |--------------------|--------------------|

      du  du  du  du       du  du  du  du  u
e |---55--55--55--55---|---77--77--77--77--6--|
B |---66--66--66--66---|---88--88--88--88--7--|
G |---77--77--77--77---|---99--99--99--99--8--|
D |--------------------|----------------------|
A |--------------------|----------------------|
E |--------------------|----------------------|

      du  du  du  du       du  du  du  du
e |---55--55--55--55---|---77--77--77--77---|
B |---66--66--66--66---|---88--88--88--88---|
G |---77--77--77--77---|---99--99--99--99---|
D |--------------------|--------------------|
A |--------------------|--------------------|
E |--------------------|--------------------|

      d d d d d d d d d d d  sd. d
e |---5-5-5-5-5-5-5-5-5-5-5--5---6---|
B |---6-6-6-6-6-6-6-6-6-6-6--6---7---|
G |---7-7-7-7-7-7-7-7-7-7-7--7---9---|
D |--------------------------7---9---|
A |----------------------------------|
E |----------------------------------|


   Bridge: (With Wah wah)


e |---xx-5--xx-5--xx-5--xx-5---|---xx-7--xx-7--xx-7--xx-7---|
B |---xx-5--xx-5--xx-5--xx-5---|---xx-8--xx-8--xx-8--xx-8---|
G |---xx-5--xx-5--xx-5--xx-5---|---xx-9--xx-9--xx-9--xx-9---| x2
D |----------------------------|----------------------------|
A |----------------------------|----------------------------|
E |----------------------------|----------------------------|


   Alt. 6th Verse: (With Wah wah) Last generation just the ruminants...

e |---xx-5--xx-5--xx-5--xx-5---|---xx-7--xx-7--xx-7--xx-7---|
B |---xx-5--xx-5--xx-5--xx-5---|---xx-8--xx-8--xx-8--xx-8---|
G |---xx-5--xx-5--xx-5--xx-5---|---xx-9--xx-9--xx-9--xx-9---| x2
D |----------------------------|----------------------------|
A |----------------------------|----------------------------|
E |----------------------------|----------------------------|


   Alt. 7th Verse: (With Wah wah) Heavy hitter stepping solid...

e |---5-5---5-5---|---7-7---7-7---|
B |---5-5---5-5---|---8-8---8-8---|
G |---5-5---5-5---|---9-9---9-9---| x2
D |---------------|---------------|
A |---------------|---------------|
E |---------------|---------------|


  Outro: (With Wah wah and final note with whammy bar or flanger effect)

     sd.
e |---5---|---7---|
B |---5---|---8---|
G |---5---|---9---|
D |---7---|---9---|
A |---7---|---7---|
E |-------|-------|


End.


Thats all for this song. Later I will tab it for Guitar Pro. Hope you enjoyed it
and thanks for watching.
Добавлено: 17.06.2013
Другие материалы по этой песне:
  • Аккорды и текст

Страница создана 22.04.2012
http://primanota.ru/matisyahu/chop-em-down-chords.htm
Привет, Гость.
Предлагаем пройти революционный курс по гитаре.
Подарок от PrimaNota.Ru, забирай!