PrimaNota.ru - самый крупный в мире бесплатный архив песенных текстов, аккордов, табулатур и нот


Matisyahu - Exaltation - текст песни, таба, видео

Регистрация Запомнить меня
Войти через:  Facebook Google Twitter Vk Yandex Mail.ru

Matisyahu - Exaltation - текст песни, таба, видео

Печатать
Просмотров: 211
EXaltation
MAtisyahu
Tab by MAck MAck


Verse:


e----3---3---1---1----|
B----4---4---1---1----|
G----5---5---2---2----|
D---------------------|
A---------------------|
E---------------------|


Chorus:


e----3---3---1---1---5---5---3---3----|
B----4---4---1---1---6---6---4---4----|
G----5---5---2---2---7---7---5---5----|
D-------------------------------------|
A-------------------------------------|
E-------------------------------------|


Later on in the song the guitarist does little riffs.
Here are some of them.


e--------------------------------------------|
B--------------------------------------------|
G---5---5-----4---4-----3--3-----2--2--------|
D--6-----6---5-----5---4----4---3----3-------|
A-7----7--7-6----6--6-5---5--5-4---4--4------|
E--------------------------------------------|


e----8----8------7---7-----6---6-----6-6-6---|
B---9------9----8-----8---7-----7---5--------|
G-10----10--10-9----9--9-8----8--8-7--7-7----|
D--------------------------------------------|
A--------------------------------------------|
E--------------------------------------------|
______________________________________________
______________________________________________
As the song ends the guitarist plays this


e----3--3--3--1--1--1-3--3--3--5--5--7|
B-----4--4-----1--1----4--4-----6--6--|
G------5--5-----2--2----5--5-----7--7-|   4X's
D-------------------------------------|
A-------------------------------------|
E-------------------------------------|


If you have any questions or comments email me at macdashkoroshet@hotmail.com
Добавлено: 22.08.2013
Другие материалы по этой песне:
  • Аккорды и текст

Страница создана 29.03.2012
http://primanota.ru/matisyahu/exaltation-chords.htm
Привет, Гость.
Предлагаем пройти революционный курс по гитаре.
Подарок от PrimaNota.Ru, забирай!