PrimaNota.ru - самый крупный в мире бесплатный архив песенных текстов, аккордов, табулатур и нот


Mason Williams - Katydids Ditty - аккорды и текст, таба, видео

Регистрация Запомнить меня
Войти через:  Facebook Google Twitter Vk Yandex Mail.ru

Mason Williams - Katydids Ditty - аккорды и текст, таба, видео

Печатать
Просмотров: 96
Katydids Ditty
Mason Williams
		   From keanj@agresearch.cri.nz Sun May  4 09:55:23 1997


 Katydid's Ditty  - Mason Williams
 ~~~~~~~~~~~~~~~
 From "Classical Gas".
 Transcribed and tabbed by John Kean (keanj@agresearch.cri.nz).

 Standard tuning.

 6/8 time.


     ,  .  .  ,  .  .     ,  .  .  ,  .  .     ,  .  .  ,  .  .

 ||--------0--------0--|--1-p0-----0-----0--|--1-p0-----0--------|
 ||--1-h3-----1-h3--1--|--------3-----------|--3-----3-----3--1--|
 ||--0--------0--------|-----------0--------|--2-----------------|
 ||--2-----------------|--------------------|--------------------|
 ||-----------3--------|--2--------1--------|--0-----------------|
 ||--------------------|--------------------|-----------3--------|



   ,     .  .  ,  .  .    ,  .  .  ,  .  .    ,     .  .  ,  .  .
 |---------------------|--------------------|----------3--0-----0--|
 |-0h1p0----0----------|------0-1--0---1-3--|-0h1p0-------1--------|
 |-------2-----1-------|--2--------0--------|-------2-----0--------|
 |-------------2-------|--2-----------------|----------------------|
 |---------------------|--0-----------------|-------------3--------|
 |-1-----------0-------|-----------3--------|-1--------------------|


    ,  .  .  ,  .  .    ,     .  .  ,  .  .
 |--1-p0-----1--0-----|----------------------||
 |--3-----3--3-----3--|--0h1p0---0--1--------||
 |-----------3--------|-2-----2--0--0--------||
 |--------------------|-3-----------2--------||
 |--2--------1--------|-------------3--------||
 |--------------------|-1--------3-----------||


     ,  .  .  ,  .  .     ,  .  .  ,  .  .     ,  .  .  ,  .  .

 ||--------0--------0--|--1-p0-----0-----0--|--1-p0-----0--------|
 ||--1-h3-----1-h3-----|--------3-----------|--3-----3-----3--1--|
 ||--0--------0--------|-----------0--------|--2-----------------|
 ||--2-----------------|--------------------|--------------------|
 ||-----------3--------|--2--------1--------|--0-----------------|
 ||--------------------|--------------------|-----------3--------|



   ,     .  .  ,  .  .    ,  .  .  ,  .  .    ,  .  .  ,  .  .
 |-------------4-------|--------------------|-0--2--4/-5--------|
 |-0h1p0----0--5-------|------0-1--0---1-3--|-0--------2--------|
 |-------2-----4-------|--2--------0---0-0--|----------------2--|
 |---------------------|--2-----------------|-------------------|
 |---------------------|--0-----------------|-------------------|
 |-1-----------0-------|-----------3--------|-4--------2--------|


    ,  .  .  ,  .  . 3/8 ,     .  . 6/8 ,  .  .  ,  .  .
 |--------------------|--------------|--------------------|
 |--1--0-----3--------|--0h1p0-------|------0-1--0---1-3--|
 |--2-----2--4--5--4--|--------2--1--|--2-----2--0-----0--|
 |--3--------5--------|--2-----------|--2-----------------|
 |--------------------|--------------|--0-----------------|
 |--------------------|-----------0--|-----------3--------|


   ,     .  .  ,  .  .    ,  .  .  ,  .  .    ,     .  .  , . .
 |----------3--0-----0--|-1-p0-----1--0-----|-------------------||
 |-0h1p0----0--1--------|-3-----3--3-----3--|--0h1p0---0--------||
 |-------2-----0--------|----------3-----3--|-2-----2--0--2-----||
 |----------------------|-------------------|-3-----------2-----||
 |-------------3--------|-2--------1-----1--|-------------0-----||
 |-1--------------------|-------------------|-1--------3--------||


   \\\\   John Kean
   OO |   ~~~~~~~~~
      )   keanj@agresearch.cri.nz
   \/ |
   '--     
Добавлено: 01.12.2013
Другие материалы по этой песне:
  • Аккорды и текст

Страница создана 20.04.2012
http://primanota.ru/mason-williams/katydids-ditty-chords.htm
Привет, Гость.
Предлагаем пройти революционный курс по гитаре.
Подарок от PrimaNota.Ru, забирай!