PrimaNota.ru - самый крупный в мире бесплатный архив песенных текстов, аккордов, табулатур и нот


Машина Времени, Андрей Макаревич - Ты или Я - аккорды и текст, видео

Регистрация Запомнить меня
Войти через:  Facebook Google Twitter Vk Yandex Mail.ru

Машина Времени, Андрей Макаревич - Ты или Я - аккорды и текст, видео

Печатать
Просмотров: 888
Ты или Я
Машина Времени, Андрей Макаревич
  Hm        D    D6    Em7-5   F#     Hm       D6    Cadd9          F#
Все очень просто - в сказке обман.   Солнечный остров  скрылся в туман.
 Em7       D6    Em             D           Em7 Gm7        Hm
Замков воздушных   не носит Земля. Кто-то ошибся - ты, или я.


Все очень просто - нет гор золотых. Падают звезды в руки других.
Нет райской птицы среди воронья. Кто-то ошибся - ты, или я


Cm              Eb Eb6  Fm7-5   G  Cm           Eb6  C#add9           G
Лишь только весною     тают снега.    И даже у моря         есть берега.
  Fm7        Eb6  Fm         Eb           Fm7  Abm7         Cm
Всех нас согреет     вера одна. Кто-то успеет   -   ты, или я.

Все очень просто - в сказке обман. Солнечный остров скрылся в туман.
Всех нас согреет вера одна. Кто-то успеет - ты, или я.



Соло 1:
~~~~~~~


E------------------|
B------------------|
G------------------|
D------------------|
A||---------3------------|------3----5----|--6----5----3----|--5---------------|
E||--3-------------------------------------|


E--------------|
B--------------|
G--------------|
D||--5------3--------------------------|
A|-----|--6------5------|--3------------|------3----5----|--6----5----3----|
E--------------|



E-------------|
B-------------|
G-------------|
D--|--5------6------|--5------3-------|
A||--3----2----3----|--5-----------------------6--|
E-------------|



E---------|
B---------|
G---------|
D||--3------------3----|--5---------------|--3------------|
A|----|------6--------------------|
E---------|



E---------|
B---------|
G---------|
D|3----|--5---------------|--3----------------|
A||------6--------------------|--3------------|
E---------|



E-|
B-|
G-|
D-|
A||--6----------------|--3------------|
E|----|--4----------------|



Импровизация перед соло 2:
~~~~~~~~~~~~~~~~~~~~~~~~~~



E||----------8-------------------------------|
B||--8---8-----8-7-7-8-7-8-7-8--6---|-----8--6-4-------6-|
G---------8-|--5---------5-------|
D--------------------|
A--------------------|
E--------------------|



E|-----8-----------|--6----------------------------|
B||--8----6-4----8---8-6----8--|-----8-6---8-6-4-----|------6-4-6--8----8--|
G|5----------|--8-5------------------5---|--7-8----------------|
D--------------------------|
A--------------------------|
E--------------------------|



E|--8-6------------------------------|
B||----8----6-8--------|--8--7-6-4---8--7-6-4---|--8--7-6-4---8--7-6-4---|
G|------0--5----------5-5----------5-|
D------------------------|
A------------------------|
E------------------------|



E||--11--13--11--13--11-10-8---|----13--11--10--8--13--|-----11-10---------11-------|
B----8------------------------13----|
G-------------------12-----------12-|
D-----------------------13----------|
A-----------------------------------|
E-----------------------------------|



E--------|
B|---------6----|--6----8~~~-----|
G||-------8----10--7-8---8-------|
D||----10---10-------------------|
A--------|
E--------|



Соло 2:
~~~~~~~


E---|----6-------------------------|
B||--8----8----|--8--6-----------|----6----4--6--8--|-------8--------|-------6-4---4--5-4---6--|
G|----8--------------5-------------|
D----------------------|
A----------------------|
E----------------------|



E----|----------4--8--|---/11----10--8-----|
B||--4----4----6----|--8------------|----------8---6------------9--|
G------------------|
D------------------|
A------------------|
E------------------|



E-----|--------/11-8---11-8---|
B-----|------8-------8------8-|
G|-10--|----8----7--8--7--|--5------------------------|
D-----------------|
A-----------------|
E-----------------|


   
E||--15----15----15----|--15------------|
B---|
G---|
D---|
A---|
E---|
Добавлено: 13.03.2012
http://primanota.ru/mashina-vremeni-2/ty-ili-ya-chords.htm
Привет, Гость.
Предлагаем пройти революционный курс по гитаре.
Подарок от PrimaNota.Ru, забирай!