PrimaNota.ru - самый крупный в мире бесплатный архив песенных текстов, аккордов, табулатур и нот


Mars Volta - Tetragrammaton - текст песни, таба, бас-таба, видео

Регистрация Запомнить меня
Войти через:  Facebook Google Twitter Vk Yandex Mail.ru

Mars Volta - Tetragrammaton - текст песни, таба, бас-таба, видео

Печатать
Просмотров: 245
Уроки эстрадного вокала в Санкт-Петербурге
Ok this is my first tab. i'm a novice guitar player. i have a decent ear so that makes 
a little easier. so far i've tabbed the beginning from :17 to 1:10. i will tab more as i 
along. i'm a perfectionist so it may take me a while, but let me know how i've done so far.

if you have advice you can leave a comment or email:sardonicgoat@gmail.com

Tetragrammaton

this part starts at :17

e|------------------------------------------------------------|
B|------------------------------------------------------------|
G|------------------------------------------------------------|
D|--------------8----8-------------8-9-11-12-11-9-8-9-11-12---|
A|-------7-9-10---10---10-9-7-9-10----------------------------|
E|7-9-10------------------------------------------------------|


e|-----------------------------------------------------------|
B|-----------------------------------------------------------|
G|-----------------------------------------------------------|
D|11-9-8----8-------------------8-9-11-9-8----8-9-11-12-11-9-|
A|-------10---10-9-7----7-9-10--------------10---------------|
E|-------------------10--------------------------------------|

e|------------------------------------------------------------------|
B|14-15-18-15 14----14----------------------------------------------|
G|---------------16----16-15----------16-18-16----------15-16-18-16-|
D|---------------------------17-16-17----------17-16-17-------------|
A|------------------------------------------------------------------|
E|------------------------------------------------------------------|

e|-----------------------------------------------------------|
B|15--14--19--17--15--14--17---------------------------------|
G|----------------------------15-----------------------------|
D|-----------------------------------------------------------|
A|-----------------------------------------------------------|
E|-----------------------------------------------------------|

Play this through 3 times. That takes you to about 1:10, 1:11 into the song. i'm workin 
the rest but a lot of people think this is one of the better parts of the song so that's 
i submitted just this part so far. will update soon.

Добавлено: 15.03.2012
Другие материалы по этой песне:

Страница создана 24.02.2012
http://primanota.ru/mars-volta/tetragrammaton-chords.htm
Привет, Гость.
Предлагаем пройти революционный курс по гитаре.
Подарок от PrimaNota.Ru, забирай!