PrimaNota.ru - самый крупный в мире бесплатный архив песенных текстов, аккордов, табулатур и нот


Mars Volta - Roulette Dares - таба, видео

Регистрация Запомнить меня
Войти через:  Facebook Google Twitter Vk Yandex Mail.ru

Mars Volta - Roulette Dares - таба, видео

Печатать
Просмотров: 111
-------------------------------------------------------------------------------
              Roulette Dares (The Haunt Of) - The Mars Volta
-------------------------------------------------------------------------------
Tabbed by:fender512

Tuning:Standard



1. Intro (muted w/flanger)
e|-------------------------------------------------|
B|-------------------------------------------------|
G|-------------0-0-0-------------------0-0---------|
D|-------------------0-2-0-----------------0-0-2-2-|
A|-0-0-0-3-3-3-------------0-0-0-3-3-3-------------|
E|-------------------------------------------------|



2. Song explodes!
e|-------------------------------------------------|
B|-------------0-----------------------0-----------|
G|-------------0-----------------------0-----------|
D|-------------------0-2p0-----------------0---2h3-|
A|-0-000-3-0-3-------------0-000-3-0-3-------------|
E|-------------------------------------------------|

e|-------------------------------------------------|
B|-------------0-----------------------0-----------|
G|-------------0-----------------------0-----------|
D|-------------------0-2p0-----------------0h2---0-|
A|-0-000-3-0-3-------------0-000-3-0-3-------------|
E|-------------------------------------------------|



3. Calms down
e|------12----12----10--------10--------10----10-----------------|
B|-13------13----13------13--------12------12----12-13---12---10-|
G|---------------------------------------------------------------|
D|---------------------------------------------------------------|
A|---------------------------------------------------------------|
E|---------------------------------------------------------------|

                               [  w/whammy bar  ]
e|----------------0------------------------------|
B|-----------12-------12--------10-----10-----10-|
G|------10-----------------10---13-----13-----13-|
D|-12---------------------------10-----10-----10-|
A|-----------------------------------------------|
E|-----------------------------------------------|

e|---------------12------------------12---------------------|
B|----------10--------10------------------10--------12---13-|
G|-----13----------------13-----13-------------13-----------|
D|----------------------------------------------------------|
A|----------------------------------------------------------|
E|----------------------------------------------------------|

e|---------0--------------------0--------0----------------|
B|------13----------------13-13-------------------10---12-|
G|-10-----------------/14-----------13-------13-----------|
D|--------------------------------------------------------|
A|--------------------------------------------------------|
E|--------------------------------------------------------|

Repeat above (substitute this for loud chords)
e|----------------------------------|
B|---------10----10--------10----10-|
G|------13----13--------13----13----|
D|-10---------------9---------------|
A|----------------------------------|
E|----------------------------------|



4. Chorus (exoskeletal...)
e|-----------------------------------------------------|
B|-----------------------------------------------------|
G|-7-------5-7-5-5-------5/-7--9------9------9------9--|
D|-0-------0-0-0-7-------7/-9--10-----10-----10-----10-|
A|---------------0-------0-----x------7------x------x--|
E|-----------------------------8-------------10-----8--|

It's because this is...
e|-------------------------|
B|-------------------------|
G|-9------9------9------9--|
D|-10-----10-----10-----10-|
A|-x------7------x------x--|
E|-8-------------10-----8--|



5. Back to main riff
e|-----------------------------------------------|
B|-------------0-----------------------0---------|
G|-------------0-----------------------0---------|
D|-------------------0-2p0-2-2-2-22-2-2----0---2-|
A|-0-000-3-0-3-------------0-0-0-00-0-0----------|
E|-----------------------------------------------|
                           x x x xx x x

e|---------------------------------------------|
B|-------------0---------------------5-----7---|
G|-------------0---------------2---3-----5---7-|
D|-------------------0-2p0---1---2-----4-------|
A|-0-000-3-0-3-------------0-------------------|
E|---------------------------------------------|



6. Acidy guitar solo (2 guitars shown together) -w/swell
e|--------12-----15---14---/17-18------------------20\----------22---------|
B|-/10-----------------------------15---14---/18---------12--------20---22-|
G|-------/9------12---11---/14---------------------17\----------19---------|
D|-/7------------------------------12---11---/15---------9---------17---19-|
A|-------------------------------------------------------------------------|
E|-------------------------------------------------------------------------|

e|----------------------------------------------------------------------------|
B|-8h10p8h10p8h10p8h10p8h10p8h10/12---10-8---8h10p8---------------------------|
G|-----------------------------------------9--------9p8\7/9---5h7-9p7p5h7p5-0-|
D|----------------------------------------------------------------------------|
A|----------------------------------------------------------------------------|
E|----------------------------------------------------------------------------|

e|--------12---------------------------------------------------------|
B|-----12----12-13p12h13p12h13/15--------------9h10h11h12---13p12-10-|
G|-/12------------------------------9h10h11h12-----------------------|
D|-------------------------------------------------------------------|
A|-------------------------------------------------------------------|
E|-------------------------------------------------------------------|

e|----15h17p15---------------12h13p12----------12h13p12----------12h13p12-|
B|-17----------17\15-12---13----------13p12h13----------13p12h13----------|
G|------------------------------------------------------------------------|
D|------------------------------------------------------------------------|
A|------------------------------------------------------------------------|
E|------------------------------------------------------------------------|

e|----------12h13p12----------12h13p12----------------------------------------|
B|-13p12h13----------13p12h13----------13-12----------------------------------|
G|----------------------------------------------------------14-16-17-16-16-14-|
D|-------------------------------------------12---/14-15-17-------------------|
A|----------------------------------------------------------------------------|
E|----------------------------------------------------------------------------|

e|-------------------------------------------------------------------------|
B|-------------------------------------------------------------------------|
G|-------------------------------------14h15h16h17-------------------------|
D|-15-14-15-17-------------14h15h16h17-------------------------14h15h16h17-|
A|-------------14h15h16h17-------------------------14h15h16h17-------------|
E|-------------------------------------------------------------------------|

e|-------------------------------------------------------------------------|
B|-------------------------------------------------------------------------|
G|-14h15h16h17-------------------------14h15h16h17-------------------------|
D|-------------------------14h15h16h17-------------------------14h15h16h17-|
A|-------------14h15h16h17-------------------------14h15h16h17-------------|
E|-------------------------------------------------------------------------|

e|-------------------------------------------------------------------------|
B|-------------------------------------------------------------------------|
G|-14h15h16h17-------------------------14h15h16h17-------------------------|
D|-------------------------14h15h16h17-------------------------14h15h16h17-|
A|-------------14h15h16h17-------------------------14h15h16h17-------------|
E|-------------------------------------------------------------------------|

e|-------------|
B|-------------|
G|-14h15h16h17-|
D|-------------|
A|-------------|
E|-------------|



7. Main riff w/relaxed beat (2 guitars)
e|-------------3-----------------------3---------|
B|-------------------3-5-3-----------------3---5-|
G|-2-2-2-5-2-2-0-----------2-2-2-5-2-2-0---------|
D|-------------------0-2-0-----------------0---2-|
A|-0-0-0-3-0-0-------------0-0-0-3-0-0-----------|
E|-----------------------------------------------|



Repeat riffs 2 and 4



8. Jazzy guitar solo
e|---12---0------------------------------------------------------------------|
B|--13------13---------------------------------------------------------------|
G|-14----------14---9h10p9\5h7p5---------5-----------5-----------------------|
D|---------------------------------5h7-----------5h7---7p5h7-5-------------5-|
A|-------------------------------------------5h7----------------\5---5/7-----|
E|---------------------------------------------------------------------------|

e|----------------------------------------------------------|
B|-------------------/8-------------------------------------|
G|-------------------/9---10----9h10p9----------------------|
D|-------------------------------------10p9---9h10p9h10/12~-|
A|----------------------------------------------------------|
E|-5h7p5\3h5p3p0--------------------------------------------|

e|-8-8---8----------8-8-8-8---8------------------------------------------|
B|---------10-------------------10---------------------------------------|
G|--------------0--------------------0---9--------7---0---9--------7---0-|
D|-------------------------------------------10---------------10---------|
A|-----------------------------------------------------------------------|
E|-----------------------------------------------------------------------|

e|-8-8---8---8----------8---8-----8------------------------------------------|
B|-------------10-------------------10---------------------------------------|
G|------------------0--------------------0---9--------7---0---9--------7---0-|
D|-----------------------------------------------10---------------10---------|
A|---------------------------------------------------------------------------|
E|---------------------------------------------------------------------------|



Repeat riff 4 after keyboard solo & "INSIDE!".



9. Guitar solo/outro (* - play notes spastically)
e|--------------------------------------------------------------0-----------|
B|----------------------------------------------10-12-10------------------8-|
G|-7b8r7b8r7b8r7b8r7b8r7b8r7---4---------------9------------7-------5/7-----|
D|-------------------------------5--/7---0----0-----------------------------|
A|--------------------------------------------------------------------------|
E|--------------------------------------------------------------------------|

                           
e|-0---10---12---------------------------------------------15-----------|
B|---------------10------------------------------------17-------15---17-|
G|--------------------7/---*5-7-----------------------16----------------|
D|------------------------------0-5-7----*5-7-5-7----17-----------------|
A|----------------------------------------------------------------------|
E|----------------------------------------------------------------------|

e|-19-------17-15------------15---------12----------------------------|
B|-----------------------17-------15\------12-10---12--------------10-|
G|----17-19-------16----16----------------------------11-9---12-------|
D|--------------------------------------------------------------12----|
A|--------------------------------------------------------------------|
E|--------------------------------------------------------------------|

e|------------------------------0-------------0------0-3-0-----0-------------|
B|------------------------------------------0--------------1-------3---------|
G|-*7-7-7/12---*7-7-7/12----5-----------5-4--------2---------2---------4-----|
D|----------------------------7-----5------------------------------------5/7-|
A|--------------------------------7---3--------------------------------------|
E|---------------------------------------------------------------------------|

                                          +    + +     +
e|---------------------------*10-10-10\----------12----5-|
B|----------------------------------------12-----------5-|
G|---------------------------------------------7-------5-|
D|-5-----------------------------------------------------|
A|----7--5--0---???????????------------------------------|
E|-------------------------------------------------------|


Good stuff!


| /  slide up
| \  slide down
| h  hammer-on
| p  pull-off
| ~  vibrato
| +  harmonic
| x  Mute note
| b  Bend
| r  Release
===============================================================================
Добавлено: 09.06.2012
Другие материалы по этой песне:

Страница создана 22.02.2012
http://primanota.ru/mars-volta/roulette-dares-chords.htm
Привет, Гость.
Предлагаем пройти революционный курс по гитаре.
Подарок от PrimaNota.Ru, забирай!