PrimaNota.ru - самый крупный в мире бесплатный архив песенных текстов, аккордов, табулатур и нот


Mars Volta - Eunuch Provocateur - текст песни, таба, видео

Регистрация Запомнить меня
Войти через:  Facebook Google Twitter Vk Yandex Mail.ru

Mars Volta - Eunuch Provocateur - текст песни, таба, видео

Печатать
Просмотров: 141
The Mars Volta - Eunuch Provocateur
---
tab by p. alvarez

This is how I learned to play the song. I won't say it's the MOST accurate
but it's definitely close. I'm just going to list the parts in order, it's
up to you to figure out how many times and how quickly yourself by playing
along to the recording. Corrections (especially for the last parts posted),
comments, etc: vacuumo at gmail.com

Standard tuning

Intro

They play the first part however many times. The part after the bars is a
variation that gets thrown in when the drums and bass start.

|---0--------------------|----------------------|
|---0---------0------0---|-----0-0-----0----0---|
|---0-0-------0------0---|-----0---0----0-------|
|---0---0-----4------4---|-----4-----4----4-----|
|---------5s7----5s7-----|-5s7------------------|
|-0--------------------0-|----------------------|

the Al-Sirat hides

|----12h15----12p0----12h15----------------------------|
|----11-------11------11----10-10-10-12-12-12----------|
|----12-------12------12-------------------------------|
|---------------------------------------------12-12-12-|
|-13-------13------13----------------------------------|
|-12-------12------12----------------------------------|

The 12-13 chord makes it difficult to jump into the next 12-11-12 chord so
I wouldn't blame you if you decided to just hit an open E.

(bass, affected guitar, noise. if you really want to play the bass part and
can't learn it by ear you're probably not up for learning this song.)

"The cauldrons have eyes"

|-15-------------12-------0-----6-7-6-5--7---------------------------------|
|----12-------15--------------0------------10---10-8---8---8-8-8-----------|
|-------12-13-------12-13---7-----------------9------9---9-------4p0-3p0-4-|
|--------------------------------------------------------------------------|
|--------------------------------------------------------------------------|
|--------------------------------------------------------------------------|

More of the "Al-Sirat hides" part, followed by "Cauldrons have eyes" part
(though Cedric sings "tribunals installed" this time around).

"I've caught mono bobbing for barbed wire"

------------|-------------7--------9-10-------------------------------------|
------------|---------------8---10---------------------------11(p0)-12(p0)--|
(4p0-3p0-4)-|-------7-9-7-----9----------9-7----------7-------------------0-|
------------|-9-9-9--------------------------9-8-9------9-------------------|
------------|--------------------------------------10-----10----------------|
------------|---------------------------------------------------------------|

The (p0)s are pull-offs to the open string and are sort of grace notes.

"Al-sirat hides", etc

|---------------|---7-----------------7------------|------7-----------7----------------------------|
|---------------|-------7h8-10------------7h8-10---|--8-7-8-10-7------------8-7---8-------8-----8-7|
|---------------|-9---9--------7h9--9---9--------7-|9-------------------------------9--------------|
|-9----7----7---|----------------------------------|-------------10-9---7-9-----------8-9---7-9----|
|---10---10---7-|----------------------------------|-----------------------------------------------|
|---------------|----------------------------------|-----------------------------------------------|
Добавлено: 30.08.2013
Другие материалы по этой песне:
  • Аккорды и текст

Страница создана 13.04.2012
http://primanota.ru/mars-volta/eunuch-provocateur-chords.htm
Привет, Гость.
Предлагаем пройти революционный курс по гитаре.
Подарок от PrimaNota.Ru, забирай!