PrimaNota.ru - самый крупный в мире бесплатный архив песенных текстов, аккордов, табулатур и нот


Marcus Miller - Funk Joint - бас-таба, видео

Регистрация Запомнить меня
Войти через:  Facebook Google Twitter Vk Yandex Mail.ru

Marcus Miller - Funk Joint - бас-таба, видео

Печатать
Просмотров: 268
Уроки эстрадного вокала в Санкт-Петербурге
Sorry, but I have only bothered to figure out the very start of the song

-------------------------------------------------------------------------------
                             Funk Joint - Marcus Miller
-------------------------------------------------------------------------------
Tabbed by: Ryanhand

Tuning: Standard

You can use more hammer-ons and pull-offs but it's possible to play with double slap. 

G|-------------5--5--4-------------------------------------------------------|
D|------5-7--------------6h-7p-6-5-----------5-------------------------------|
A|-5-7-----------------------------7---5--7----7--6--5--------6--6~----------|
E|------------------------------------------------------8--5-----------------|


G|-------------5--5--4-------------------------------------------------------|
D|------5-7--------------6h-7p-6-5-----------5-------------------------------|
A|-5-7-----------------------------7---5--7----7--6--5--------6--5~----------|
E|------------------------------------------------------8--5-----------------|

G|-------------5--5--4-------------------------------------------------------|
D|------5-7--------------6h-7p-6-5-----------5-------------------------------|
A|-5-7-----------------------------7---5--7----7--6--5--------6--6~----------|
E|------------------------------------------------------8--5-----------------|


G|-------------8--8--7---6h-8p-6---------------------------------------------|
D|------5-7-----------------------8-6--------5-------------------------------|
A|-5-7---------------------------------5--7----7--6--5--------6--5~----------|
E|------------------------------------------------------8--5-----------------|

G|---------------------------------------------------------------------------|
D|---------------------------------------------------------------------------|
A|-5-------------------------------------------------------------------------|
E|-------8------5------------------------------------------------------------|


| /  slide up
| \  slide down
| h  hammer-on
| p  pull-off
| ~  vibrato
| +  harmonic
| x  Mute note
===============================================================================
Добавлено: 10.09.2013
Другие материалы по этой песне:
  • Аккорды и текст

Страница создана 10.09.2013
http://primanota.ru/marcus-miller/funk-joint-chords.htm
Привет, Гость.
Предлагаем пройти революционный курс по гитаре.
Подарок от PrimaNota.Ru, забирай!