PrimaNota.ru - самый крупный в мире бесплатный архив песенных текстов, аккордов, табулатур и нот


Marcus Miller - Frankenstein - бас-таба, видео

Регистрация Запомнить меня
Войти через:  Facebook Google Twitter Vk Yandex Mail.ru

Marcus Miller - Frankenstein - бас-таба, видео

Печатать
Просмотров: 145
Авторы музыки: Edgar Winter

As recorded by Marcus Miller
(From the 2005 Album SILVER RAIN)


Transcribed by Peter Scholl

 Music by Edgar Winter
Arranged by Marcus Miller
 

Gtr I (E A D G) - 'Untitled'


 Intro (Main Theme)
  Q=92                                     1.
 4/4
  Gtr I
  W            S S S S S S S S S S S S Q    S S S S S S S S S S S S S S E
|----------||-----------------------------|---------------------------------||
|----------||o----------------------------|---------------0-----0h3-5p3-5--o||
|----------||o-------------------------1--|-----------------1h3------------o||
|----------||--3-3---3---3---1-3---3------|-3-3---3---1-3-------------------||


  2.
                      ~~~~~~
  S S S S S S E S S S S +S  S E   S S S S S S S S S S S S Q
|-------------------------------|----------------------------|
|---------------5p3-------------|----------------------------|
|-------------------5-3-(3)-1---|-------------------------1--|
|-3-3---3---1-3---------------3-|-3-3---3---3---1-3---3------|


  S S S S S S S S S S S S S S E
|---------------------------3-----|
|---------------0-----0h3-5---5---|
|-----------------1h3-------------|
|-3-3---3---1-3-------------------|


  S S S S S S S S S S S S S S E   S S S S S S E E Q     +E
|-------------------------------|---------------------------|
|-------------------------------|-----------------3tr5--(3)-|
|-------------------------1h2p1-|---------------------------|
|-3-3---3---3---1-3---3---------|-3-3---3---1-3-------------|


  S S S S +E  S S S S S S +E  S S
|-------------3-0-5p3---3-(3)-5p3---|
|-2-3-4-5-(5)---------5-------------|
|-----------------------------------|
|-----------------------------------|


                             Theme II
  a E T T T T E E +E  Q.      q  E E e e E E
|-5s7-5h7p5s3---3-(3)------||----------------|
|-------------5-------5----||----------------|
|--------------------------||----3h4-5-6-3-4-|
|--------------------------||-6--------------|


  e E e E +E  S S +S  S E   q  e. S S S S S E S S
|-------------------------|-----------------------|
|-------------3s5-(5)-5---|-----------------------|
|-5-----------------------|-3--3----3-3-----3-x---|
|---1-2-3-(3)-----------3-|-------3-------3-----3-|


  e E E E +E  a Q  E   q  e. S S S S S S S S S   E E E E +S  S S S +Q
|-------------3h5----|-------------------------|---------------7h9-(9)\--||
|--------------------|-------------------------|-------------------------||
|-3-1-2-3-(3)------3-|-4--4----5-5-----5-5---x-|-6-6-6-7-(7)-7-----------||
|--------------------|-------3-------3---------|-------------------------||


 Main Theme
  S S S S S S S S S S S S Q    S S S S S S S S S S S S S S S S
|----------------------------|---------------5p3---------------|
|----------------------------|-------------------5-3-----------|
|-------------------------1--|-----------------------5-4p3-1---|
|-3-3---3---3---1-3---3------|-3-3---3---1-3-----------------3-|


  S S S S S S S S S S S S S S E
|-------------------------------|
|-------------------------------|
|-------------------------1h2p1-|
|-3-3---3---3---1-3---3---------|


                              Trumpet Solo
  S S S S S S E E Q     +E     q  e. S q  E S S
|---------------------------||------------------|
|-----------------3tr5--(3)-||------------------|
|---------------------------||----1--x-3--------|
|-3-3---3---1-3-------------||-3------------x-x-|


  e. S +S  S E E E S S S S   q  e. S q  E S S
|--------------------------|-------------------|
|------------------x-------|-------------------|
|----1-(1)-x-3-------------|----1--x-3---------|
|-3--------------x---x-x-x-|-3------------x-x--|


  e. S +S  S E S S S S E S S
|----------------------------|
|----------------------------|
|----1-(1)-x-3-----x-x-------|
|-3------------x-x-----1-x-x-|


  e. S e. S q  E  S  S   e. S +S  S E E E S S S S
|----------------------|---------------------------|
|----------------------|---------------------------|
|----x-1--x-3----------|----1-(1)-x-3--------------|
|-3--------------(x)-x-|-3--------------x---x-x-x--|


  q  e. S q  S S S S   e  S  S +S  S E   e  E  +S   s s s
|--------------------|-----------------/17-15-(15)\-------|
|--------------------|------------------------------------|
|----1--x-3----------|---(x)-1-(1)-x-3--------------------|
|-3------------x-x-x-|-3----------------------------0-0-0-|


  e. S e. S q  S S S S
|-----------------------|
|-----------------------|
|----x-1--x-3-----------|
|-3--------------x-x-x--|


  e  S  S +S  S E E E S S S S   e. S e. S q  S S S S
|---------------------x-------|----------------------|
|-----------------------------|----------------------|
|---(x)-1-(1)-x-3---x---x-x-x-|----x-1--x-3----------|
|-3---------------------------|-3--------------x-x-x-|


  e  S  S +S  S E s s s s s s s s   e. S e. S q  S S S S
|---------------------------------|-----------------------|
|---------------------2-2-----3-3-|-----------------------|
|---(x)-1-(1)-x-3-----------------|----x-1--x-3-----------|
|-3---------------0-0-----1-1-----|-3--------------x-x-x--|


  e  S  S +S  S E E  E S s s s   e. S e. S q  S S S S
|-------------------/5p3-------|----------------------|
|------------------------------|----------------------|
|---(x)-1-(1)-x-3--------------|----x-1--x-3----------|
|-3----------------------0-0-0-|-3--------------x-x-x-|


  S S S S S S S S S S S S S S S S
|----------------------------------||
|----------------------------------||
|---------0-0---0-1-1---1-2-2---2--||
|-3-3---3--------------------------||


 Theme II
                                            ~~
  e. S e. S S S S S E S  S    E E E E +E  a Q.
|---------------------------|-------------3h5----|
|---------------------------|--------------------|
|-3--x-3----3-3-----3-x-----|-3-1-2-3-(3)--------|
|---------3-------3-----(3)-|--------------------|


  q  e. S S S S  S  e. S   E E E E +S  S S S +Q
|------------------------|---------------7h9-(9)\---||
|------------------------|--------------------------||
|-4--4----5-5-------5--5-|-6-6-6-7-(7)-7------------||
|-------3-------(3)------|--------------------------||


 Main Theme
                                                   ~~~~~~
  S S S S S S S S S S S S Q    S S S S S S E S S S S +S  S S S
|----------------------------|---------------------------------|
|----------------------------|---------------5p3---------------|
|-------------------------1--|-------------------5-3-(3)-1-----|
|-3-3---3---3---1-3---3------|-3-3---3---1-3---------------3-1-|


  S S S S S S S S S S S S S S E
|--------------------------------|
|--------------------------------|
|-------------------------1h2p1--|
|-3-3---3---3---1-3---3----------|


                              Saxophone Solo
  S S S S S S E E Q     +E     e. S e. S q  E S S
|---------------------------||--------------------|
|-----------------3tr5--(3)-||--------------------|
|---------------------------||------1--x-3--------|
|-3-3---3---1-3-------------||-3--x-----------x-x-|


  e. S +S  S E E E S S S S   q  e. S q  S S S S
|--------------------------|--------------------|
|------------------x-------|--------------------|
|----1-(1)-x-3-------------|----1--x-3----------|
|-3--------------x---x-x-x-|-3------------x-x-x-|


  e. S +S  S E E  S   S   S   S   S   S    q  e. S q  S S S S
|----------------------------------------|--------------------|
|----------------------------------------|--------------------|
|----1-(1)-x-3---------------------------|----1--x-3----------|
|-3--------------(0)-(0)-(0)-(0)-(0)-(0)-|-3------------x-x-x-|


  e  S  S +S  S E E  E S  S   S   S    q  e. S q  S S S S
|-------------------/5p3-------------|--------------------|
|------------------------------------|--------------------|
|---(x)-1-(1)-x-3--------------------|----1--x-3----------|
|-3----------------------(0)-(0)-(0)-|-3------------x-x-x-|


                            ~~~~~~~
  e  S  S +S  S E   e   E  +E   E    e. S e. S q  S S S S
|-----------------/17-/17-(17)-15\-|----------------------|
|----------------------------------|----------------------|
|---(x)-1-(1)-x-3------------------|------1--x-3----------|
|-3--------------------------------|-3--x-----------x-x-x-|


                       ~~~~~~
  e  S  S +S  S E E  S S +S  s s s   q  e. S q  S  S   S   S
|-------------------/5p3-(3)-------|---------------------------|
|----------------------------------|---------------------------|
|---(x)-1-(1)-x-3------------------|----1--x-3-----------------|
|-3--------------------------0-0-0-|-3------------(0)-(0)-(0)--|


  e  S  S +S  S E s s s s s s s s   q  e. S q  S s s s
|---------------------------------|--------------------|
|---------------------2-2-----3-3-|--------------------|
|---(x)-1-(1)-x-3-----------------|----1--x-3----------|
|-3---------------0-0-----1-1-----|-3------------x-0-0-|


                     ~~~~
  e  S  S +S  S E E  E S  S   S   S    q  e. S q  S  S   S   S
|-------------------/5p3-------------|---------------------------|
|------------------------------------|---------------------------|
|---(x)-1-(1)-x-3--------------------|----1--x-3-----------------|
|-3----------------------(0)-(0)-(0)-|-3------------(0)-(0)-(0)--|


  e  S  S +S  S E S S  S   S   S   S   S   S
|---------------------------------------------|
|---------------------------------------------|
|---(x)-1-(1)-x-3---3-------------------------|
|-3-------------------(0)-(0)-(0)-(0)-(1)-(1)-|


  q  e. S q  S S  S   S    e  S  S +S  S E S S S S S S S S
|------------------------|----------------------------------|
|------------------------|-------------------x--------------|
|----1--x-3--------------|---(x)-1-(1)-x-3------------------|
|-3------------x-(0)-(0)-|-3-------------------x-x-x-x-x-x--|


                                                     ~~~~~~~
  q  e. S q  S S  S   S    e  S  S +S  S E   e   E  +E   E
|------------------------|-----------------/17-/17-(17)-15\-|
|------------------------|----------------------------------|
|----1--x-3--------------|---(x)-1-(1)-x-3------------------|
|-3------------x-(0)-(0)-|-3--------------------------------|


  q  e. S q  S S  S   S    e. S +S  S E E E S S S S
|------------------------|--------------------------|
|------------------------|------------------x-------|
|----1--x-3--------------|----1-(1)-x-3-------------|
|-3------------x-(0)-(0)-|-3--------------x---x-x-x-|


  e. S e. S q  S  S   S  S
|--------------------------|
|--------------------------|
|----x-1--x-3--------------|
|-3--------------(0)-(0)-x-|


                                    Theme II
  S S S S S S S S S S S S S S S S    e. S e. S S S S S e.  S
|---------------------------------||---------------------------|
|---------------------------------||---------------------------|
|---------0-0---0-1-1---1-2-2---2-||-3--x-3----3-3-----3-------|
|-3-3---3-------------------------||---------3-------3----(x)--|


  e E E E +E  a Q.     q  e.  S  S S S  S  e. S
|-------------3h5----|--------------------------|
|--------------------|--------------------------|
|-3-1-2-3-(3)--------|-4--4------5-5-------5--5-|
|--------------------|-------(3)-------(3)------|


                                                  ~~~~~~
  E E E E +S  S S S +Q      S S S S +E  S S S S S S +S  S S S
|---------------7h9-(9)\--|-----------------------------------||
|-------------------------|---------------------------------3-||
|-6-6-6-7-(7)-7-----------|-----------------1---3-1-(1)-5p3---||
|-------------------------|-1-3---3-(3)-1h3---3---------------||


   Theme III (Drum Break)
                      ~~~~~~
    S S E E S S S S S S +S  S S S
||--------------------------------|
||o-----------------------------3-|
||o-------------1---3-1-(1)-5p3---|
||--1-3---3-1h3---3---------------|


 1.                            2.
                       ~~~                             ~~~~
  e S S S e S S S S S +E  e     e S S S e S S S S  S  +E   e
|-------3---5p3-7-5----------||-------3---5p3-7-5-10-(10)-12-|
|---5p3---5---------3-(3)-5-o||---5p3---5--------------------|
|-5-------------------------o||-5----------------------------|
|----------------------------||------------------------------|


                      1.
     E. S S S E H       E. S S S E H
||-------------------|---------3---------||
||o-/5--3-5----------|-/5--3-5----------o||
||o------------------|------------------o||
||----------3--------|-------------------||


 2.
   E. S S S S  S  S  E. S E.   E E E E E E E E
|---------3---15S20S12--8S0--|------------------|
|-/5--3-5--------------------|------------------|
|----------------------------|------------------|
|----------------------------|-3-3-3-3-3-3-3-3--|


  E E E E E E E E     S  S  S  S  S  S  S  S  S  S  S  S  S  S  S  S
|------------------|-12-11-12-11-12-11-12-11-12-11-12-11-12-11-12-11-|
|---------------5/-|-------------------------------------------------|
|------------------|-------------------------------------------------|
|-3-3-3-3-3-3-3----|-------------------------------------------------|


   S  S  S  S  S  S  S  S  S  S  S  S  Q
|-12-11-12-11-12-11-12-11-12-11-12-11-12\---|
|-------------------------------------------|
|-------------------------------------------|
|-------------------------------------------|


 Bass Solo
  Q  E. S S S S S S  S S S   S  S  E E S S S S S S  S S E
|-------------------10s9---|----7s=9-----------9---10-----|
|-------5------------------|-------------x----------------|
|---------------5s8------7s|=5-(5)s7---------7---7----8---|
|-3---------3--------------|-----------x------------------|


  Q  E S S S S S S S  S S S
|--------------------10s9-----||
|--------5--------------------||
|----------------5s8------7s==||
|-3----x-----3----------------||


  S S E S S S S S S E E E     Q  S T T S S S S S S S  S S S
|---7s9-------------------||-------------------------10s9---|
|---------x---x-----3---4-||o--------x---5------------------|
|-5-5s7-------------------||o--------------------5s8------7s|
|-----------x---0h1---2---||--3----x---x-----3--------------|


 1.
  S S E S S S S   e  E  +S  S S S
|---7s9---0-----/17-15-(15)----------||
|-------------x---------------------o||
|-5-5s7-------------------------0---o||
|-----------x---------------0h1------||


  2.
  S S E E E E E E S S     S  S  e S S S S S S S S E S S
|---7s9---------------||--------3-----------------------|
|---------2---3---4---||o-------------5-x-7-5-----5-x---|
|-5-5s7---------------||o---------5s7---------5s7-------|
|-------0---1---2---5-||--3-(x)-----------------------x-|


 1.
  S S S  S +S  E S S S S S S S S s
|-----------------------------------||
|-----0----------------------------o||
|--------------------------------0-o||
|-6s8---/6-(6)-3-3---0h1-0-1h2------||


  2.
  S S S  S +S  E S S S S S S S S S
|----------------------------------|
|-----0----------------2---3-----0-|
|----------------------------------|
|-6s8---/8-(8)-6-3---x---0---1-----|


        ~~~~          ~~~~
  e e a E E S s S S a E E   +S  S S S e a E a S. T S S E E
|---3-3s5-3---------------|---------------------------------|
|-------------0---x-------|-------2-------------------------|
|-------------------1s3-1-|-(1)---------3s5-5s3--1---1------|
|-3---------x---x---------|-----0---0-3------------3---3-1--|


            ~~~~          ~~~~        ~~~~~~~~~~~~~~~~~~~~~~~~~~~~~~~~
  S S S S a E E S S S S a E E    s    E S +S  E S +S  T T S S S S S S
|---3-----3s5-3---x-----------|-----/10-9-(9)-7-5-(5)-6p5p3-5-3-0-----|
|-----------------------------|-(8)-------------------------------3-0-|
|-x---x-x-------x---x-x-1s3-1-|---------------------------------------|
|-----------------------------|---------------------------------------|


               ~     ~
  a e. S +S  s E S S E e  T T T T
|------3-(3)---3-----5-3\-----------|
|-3s5--------5---5-x------3-3-3-3---|
|-----------------------------------|
|-----------------------------------|


                                                        ~
  E S S +S  S S S a E S S E S S   E S S +S  S E S S a E E T T T T
|---x-------------------------x-|-----3-(3)---3-----3s5-3---------|
|-3---5-(5)-3-5-x-3s5-----------|-----------x---5-x-------3-3-3-3-|
|---------------------1h3-1-x---|---------------------------------|
|-------------------------------|-3-x-----------------------------|


  E T T T T E T T T T E a S. T T T T T  S S
|-------------3-3-3-3-3-5s6--5-3p0----------|
|-3-5-5-5-5-5----------------------3p0------|
|-------------------------------------------|
|--------------------------------------\3-1-|


  E. S +S  S E e a E E S S   S S S S +S  S a E S s S S E S S
|----3-(3)---3---3h5-3-----|-----------------------------------|
|----------x---5-----------|-------------------------------x---|
|--------------------------|-------1-(1)---3s5-3s1---1---------|
|----------------------1-x-|-1h3---------x---------3---3-1-----|


   e   T  T  T  T  T  T  T  T  T  T  T  T  T  T  T  T  T  T  T  T  T  T  T  T  T  T  T  T
|--------------------------19----------13-------13h17----------11-------11h16-------11h16-|
|--------------19-------19----------13-------15-------------11-------14----------14-------|
|--------15h17----15h17----------15-------13-------------13-------11----------11----------|
|-(3)-15----------------------13----------------------11----------------------------------|


   T  T  T  T  T  T  T  T  T  T  T  T  T  T  T  T  T  T  T  T  T  T  T  T  T  T  T  T  T  T  T  T
|----------10----------10-------10h15-------10h15-------10h15-------12h17-------13h17-------14h19--|
|-------10----------10-----------------------------------------------------------------------------|
|----12----------12----------12----------12----------12----------14----------15----------16--------|
|-10----------10----------10----------10----------10----------12----------13----------14-----------|


   Q   Q  E. S S  S S S   S S E E S S S S S S  S S E
|----------------10s9---|---7s9-----x-----9---10-----|
|-----------------------|---------x------------------|
|------------5s8------7s|=5-5s7-------x-7---7----8---|
|-15\-------------------|-------x--------------------|


  Q  S T T S S S S S S S  S S S
|------------------------10s9-----|
|--------x---5--------------------|
|--------------------5s8------7s==|
|-3----x---x-----3----------------|


                      ~~~
  S S E   Q     Q     Q    E E S T T S S S S S S S  S S S
|---7s9-/12\--/15\--/19--|-------------------------10s9---|
|------------------------|---------x---5------------------|
|-5-5s7------------------|---------------------5s8------7s|
|------------------------|-3-1---x---x-----3--------------|


  S S E S S S S s S S S E S S
|---7s9-----3---5-3---3--------|
|-------------------5---5-3----|
|-5-5s7---x---x----------------|
|---------------------------x--|


                                                                   ~~
  a E E S T T S S S S S S S  S S S   S  S  S  S  S S S S T T S S S E. S
|---------------------------10s9---|----7s=9-----0--------------------x--||
|-3s5-------x---5------------------|---------(0)---x-7-x-8p7p5-----5-----||
|-----------------------5s8------7s|=5-(5)s7-------------------7-5-------||
|---------x---x-----3--------------|-------------------------------------||


   Theme III
                          ~~~~~~
    S S S S +E  S S S S S S +S  S S S
||------------------------------------|
||o---------------------------------3-|
||o-----------------1---3p1-(1)-5p3---|
||--1-3---3-(3)-1h3---3---------------|


                         ~~~~
  e S S S e S S S S  S  +E    e  4x     E. S S S E H
|-------3---5p3-7p5-10-(10)-/12--||-||------------------|
|---5p3---5---------------------o||-||o-5--3-5----------|
|-5-----------------------------o||-||o-----------------|
|--------------------------------||-||---------3--------|


  E. S S S E H        E E E E E E E E   E E E E E E E E
|--------3---------||-----------------|------------------|
|-5--3-5----------o||-----------------|---------------5/-|
|-----------------o||-----------------|------------------|
|------------------||-3-3-3-3-3-3-3-3-|-3-3-3-3-3-3-3----|


   S  S  S  S  S  S  S  S  S  S  S  S  S  S  S  S
|-12-11-12-11-12-11-12-11-12-11-12-11-12-11-12-11-|
|-------------------------------------------------|
|-------------------------------------------------|
|-------------------------------------------------|


   S  S  S  S  S  S  S  S  S  S  S  S  Q
|-12-11-12-11-12-11-12-11-12-11-12-11-12\--||
|------------------------------------------||
|------------------------------------------||
|------------------------------------------||


   Outro (Main Theme)
                                1.
    S S S S S S S S S S S S Q    S S S S S S S S S S S S S S E
||-----------------------------|--------------------------------||
||o----------------------------|---------------0-----0h3-5p3-5-o||
||o-------------------------1--|-----------------1h3-----------o||
||--3-3---3---3---1-3---3------|-3-3---3---1-3------------------||


 2.
                        ~~~~~~~
  S S S S E E  S  S  S  S  +S  S  E
|-----------7S12p10-------------------|
|-------------------12-10-(10)-8------|
|--------------------------------10---|
|-3-3---3-----------------------------|


  S S S S S S S S S S S S Q    S S S S S S S S  S  S  S  S  S  S  E
|----------------------------|--------------------------------15----|
|----------------------------|---------------0----------15-17----17-|
|-------------------------1--|-----------------13h15h17-------------|
|-3-3---3---3---1-3---3------|-3-3---3---1-3------------------------|


  S S S S S S S S S S S S S S E   S S S S S S S S H
|-------------------------------|----------------------*|
|-------------------------------|----------------------*|
|-------------------------1h2p1-|----------------------*|
|-3-3---3---3---1-3---3---------|-3-3---3---1-3--------*|




--------------------------------------------------------------------------------


Duration Legend
---------------
W - whole; H - half; Q - quarter; E - 8th; S - 16th; T - 32nd; X - 64th; a - acciaccatura
+ - note tied to previous; . - note dotted; .. - note double dotted
Uncapitalized letters represent notes that are staccato (1/2 duration)
Irregular groupings are notated above the duration line
Duration letters will always appear directly above the note/fret number it represents the
duration for.  Duration letters with no fret number below them represent rests.  Multi-
bar rests are notated in the form Wxn, where n is the number of bars to rest for.  Low
melody durations appear below the staff

Tablature Legend
----------------
 h   - hammer-on
 p   - pull-off
 b   - bend
 pb  - pre-bend
 r   - bend release (if no number after the r, then release immediately)
 /\  - slide into or out of (from/to "nowhere")
 s   - legato slide
 S   - shift slide
 - natural harmonic
[n]  - artificial harmonic
n(n) - tapped harmonic
 ~   - vibrato
 tr  - trill
 T   - tap
 TP  - trem. picking
 PM  - palm muting
\n/  - tremolo bar dip; n = amount to dip
 \n  - tremolo bar down
 n/  - tremolo bar up
/n\  - tremolo bar inverted dip
 =   - hold bend; also acts as connecting device for hammers/pulls
 <> - volume swell (louder/softer)
 x   - on rhythm slash represents muted slash
 o   - on rhythm slash represents single note slash

Misc Legend
-----------
 |  - bar
||  - double bar
||o - repeat start
o|| - repeat end
*|  - double bar (ending)
 :  - bar (freetime)
 $  - Segno
 &  - Coda
Tempo markers -  = BPM(8/16=s8/s16), where s8 = swing 8ths, s16 = swing 16ths



--------------------------------------------------------------------------------


Добавлено: 21.03.2012
Другие материалы по этой песне:

Страница создана 17.03.2012
http://primanota.ru/marcus-miller/frankenstein-chords.htm
Привет, Гость.
Предлагаем пройти революционный курс по гитаре.
Подарок от PrimaNota.Ru, забирай!