PrimaNota.ru - самый крупный в мире бесплатный архив песенных текстов, аккордов, табулатур и нот


Manowar - Fast Taker - аккорды и текст, таба, видео

Регистрация Запомнить меня
Войти через:  Facebook Google Twitter Vk Yandex Mail.ru

Manowar - Fast Taker - аккорды и текст, таба, видео

Печатать
Просмотров: 272
Авторы музыки: Ross Friedman, Joey DeMaio

Fast Taker
Manowar
Standard Tuning

Intro } 2x
----------------------------------------------------------------------------
----------------------------------------------------------------------------
-2----5----9--5------7----11--7-----12----16-12-----------------------------
-2----5----------5---7-----------7--12----------12--------------------------
-0----3--------------5--------------10--------------------------------------
----------------------------------------------------------------------------

Riff 1 } 8x
--------------------------------Fill---------------------------------------
---------------------------------------------------------------------------
-2----5---4---5--7---4-4--5------------------------------------------------
-2----5---4---5--7---4-4--5--------2---------------------------------------
-0--0-3-0-2-0-3--5---2-2--3--------2---------------------------------------
-----------------------------------0---------------------------------------

Bass Fill (Play at the end of the fourth Riff 1)
-14--12---------------------------------------------------------------------
---------14-12-10-----------------------------------------------------------
------------------12-10-----------------------------------------------------
----------------------------------------------------------------------------

Play Riff 1 } 4x

Riff 2 } 2x
----------------------------------------------------------------------------
----------------------------------------------------------------------------
-2----5---4---5--7---4--4--5------------------------------------------------
-0--0-3-0-2-0-3--5---2--2--3------------------------------------------------
----------------------------------------------------------------------------
----------------------------------------------------------------------------

Play Riff 1 } 2x

Chorus
----------------------------------------------------------------------------
----------------------------------------------------------------------------
----------------------------------------------------------------------------
-3--3--3--3--3--3--5--5--5--5--5--5--7--7--7--7--7--7---7---5-5--7-7-7-7-7--
-3--3--3--3--3--3--5--5--5--5--5--5--7--7--7--7--7--7---7---5-5--7-7-7-7-7--
-1--1--1--1--1--1--3--3--3--3--3--3--5--5--5--5--5--5---5---3-3--5-5-5-5-5--

----------------------------------------------------------------------------
----------------------------------------------------------------------------
----------------------------------------------------------------------------
--------------3--3-3--3--3-3-3-3--5-5-5-5-5-5-5-5--2-2-2-2-2-2-2-2-2-2-2--2-
--------------3--3-3--3--3-3-3-3--5-5-5-5-5-5-5-5--2-2-2-2-2-2-2-2-2-2-2--2-
--5--3--2--1--1--1-1--1--1-1-1-1--3-3-3-3-3-3-3-3--0-0-0-0-0-0-0-0-0-0-0--0-

Fast Taker...

----------------------------------------------------------------------------
----------------------------------------------------------------------------
-7-7-7--5-7-7-7-7-7-5-7-7-7-7-5-7-7-7-7----7--5--3--0-----------------------
----------------------------------------------------------------------------

Play Riff 1 } 4x
Play Riff 2 } 2x
Play Riff 1 } 2x
Play Chorus

Bass solo
----------------------------------------------------------------------------
-7h10p7h10p7h10p7h10p7h10p7h10p7h10p7h10p7h10--7h10/12-7h10/12-7h10/12-7h12-
----------------------------------------------------------------------------
----------------------------------------------------------------------------

----------------------------------------------------------------------------
-14-10----14-10----10-------------------------------------10-12(14)-14(16)--
-------12-------12----14-12-10----12-10----------10-12-14-------------------
-------------------------------13-------13-12-10----------------------------

Guitar solo (Play Riff 1 4x, Riff 2 2x, Riff 1 2x, Chorus)
----------------------------------------------------------------------------
---------------------------------------5----5----5----5----5----5----8-5----
-----------------5-7-5---7-5---7-5-----7(9)-7(9)-7(9)-7(9)-7(9)-7(9)-----7--
-7--7-7-7--7--7--------7-----7-----7----------------------------------------
----------------------------------------------------------------------------
----------------------------------------------------------------------------

---------8-5---5-----------8-5---8-5---8-5---8-5---8-5-8-5---8-5-8-5---8-5--
-8-5---------8---8-5-8-5-------8-----8-----8-----8---------8---------8-----8
-----7-------------------7--------------------------------------------------
----------------------------------------------------------------------------
----------------------------------------------------------------------------
----------------------------------------------------------------------------

---------------------------------------------------------------------------
8-5---5----------------------------------------10-10-10-10-10------10-10-10
----7---7-5-7-5---5-----------------------9/11-11-11-11-11-11-9/11-11-11-11
----------------7---7-5-7-5---5--------------------------------------------
----------------------------7---7-5-5(7)-----------------------------------
---------------------------------------------------------------------------

--------10--------10--------10--------10---------17-14----------------17----
-13(15)----13(15)----13(15)----13(15)-----17(19)---------17-14--17-20-------
----------------------------------------------------------------------------
----------------------------------------------------------------------------
----------------------------------------------------------------------------
----------------------------------------------------------------------------

-------17-------17-------17-------17-20-17----20-17----20-17----20-17-------
-17-20----17-20----17-20----17-20----------20-------20-------20-------20----
----------------------------------------------------------------------------
----------------------------------------------------------------------------
----------------------------------------------------------------------------
----------------------------------------------------------------------------

1st ending
-20(22)-br-17-------------2x----------------------------------------------
--------------20-17-------------------------------------------------------
--------------------19-17-----------------------------------14~--14-14-14-
--------------------------------------------------------------------------
--------------------------------------------------------------------------
----------------------------5--6--8--6--5----7--8--10--8--7---------------

2nd
-----------------------------------------------------------19(20)-19(20)-17
-13--------15(17)-br-13-----15(17)-15(17)-15(17)-br-13---------------------
----14-14---------------14-----------------------------14------------------
---------------------------------------------------------------------------
---------------------------------------------------------------------------
---------------------------------------------------------------------------

----------------------------------------------------------------------------
-17-------------------------------------------------------------------------
----------------------------------------------------------------------------
----------------------------------------------------------------------------
----------------------------------------------------------------------------
----------------------------------------------------------------------------

Play Riff 1 } 4x
Play Riff 2 } 2x
Play Riff 1 } 2x
Play Chorus
Добавлено: 20.09.2013
Другие материалы по этой песне:
  • Аккорды и текст

Страница создана 23.05.2012
http://primanota.ru/manowar/fast-taker-chords.htm
Привет, Гость.
Предлагаем пройти революционный курс по гитаре.
Подарок от PrimaNota.Ru, забирай!