PrimaNota.ru - самый крупный в мире бесплатный архив песенных текстов, аккордов, табулатур и нот


Manowar - Shell Shock - аккорды и текст, видео

Регистрация Запомнить меня
Войти через:  Facebook Google Twitter Vk Yandex Mail.ru

Manowar - Shell Shock - аккорды и текст, видео

Печатать
Просмотров: 277
Авторы музыки: Ross Friedman, Joey DeMaio

Shell Shock
Manowar
Intro:		[----------------------------------------------------------------------------
----------------------------------------------------------------------------
-----------------------------------------------o----------------------------
---5-----5-----5---5-----5-----5-----5---5-----o---------------7------------
---3-0-0-3-0-0-3-0-3-0-0-3-0-0-3-0-0-3-0-3-0-0---------3-------5------------
-------------------------------------------------0-3-5---5-3----------------]

Main Theme:	[----------------------------------------------------------------------------
----------------------------------------------------------------------------
-----------------------------------------------o----------------------------
--5-----5-----5---5-----5-----5-----5---5------o------7---------------------
--3-0-0-3-0-0-3-0-3-0-0-3-0-0-3-0-0-3-0-3-0-0-----00--5---------------------
----------------------------------------------------------------------------]
Part I - without distortion: (Well there's no charge for the haircut...)
[----------------------------------------------------------------------------
----------------------------------------------------------------------------
---9-9---9-9---9-9---9-9-----o----------------------------------------------
---7-7---7-7---7-7---7-7---7-o----------------------------------------------
---------------------------5------------------------------------------------
----------------------------------------------------------------------------]
Repeat Main Theme (Now I'm a ranger, not a stranger...).

Bridge:		(But if they tell you that I've lost my mind...)
[-----------------------------------------------------------------------------
-----------------------------------------------------------------------------
-----------------------------------------------------------------------------
--10-10-10-10-10-10-10-9-9-9-9-9-9-9-5-5-5-5-5-5-5-7-7-7-7-7-7-7-------------
--8--8--8--8--8--8--8--7-7-7-7-7-7-7-3-3-3-3-3-3-3-5-5-5-5-5-5-5-------------
-----------------------------------------------------------------------------]
(About the time this letter gets home, I'll be gone, gone, yeah gone)
[-----------------------------------------------------------------------------
-----------------------------------------------------------------------------
-----------------------------------------------------------------------------
--10-10-10-10-10-10-10-9-9-9-9-9-9-9-----------------------------------------
--8--8--8--8--8--8--8--7-7-7-7-7-7-7--7-7-7--5-5-5---------------------------
--------------------------------------5-5-5--3-3-3---------------------------]

On the chorus, play the Main Theme.

-

Standard Tuning

Solo 1:		----------------------------------------------------------------------------
------------------------------------------------8(10)---------5-8-5---------
-5-5-5-5-5-5-5-5-5-5-5-5-5-5-5-5-5-5-5-5-5-5-5------------5-7-------7-5-----
------------------------------------------------------5-7---------------7-5-
-3-3-3-3-3-3-3-3-3-3-3-3-3-3-3-3-3-3-3-3-3-3-3------------------------------
----------------------------------------------------------------------------

----------------------------------------------------------------------------
------------------------------------------------8(10)-------------5-8-5-----
-5-5-5-5-5-5-5-5-5-5-5-5-5-5-5-5-5-5-5-5-5-5-5-------------5-7(9)-------7-5-
-------------------------------------------------------5-7------------------
-3-3-3-3-3-3-3-3-3-3-3-3-3-3-3-3-3-3-3-3-3-3-3------------------------------
----------------------------------------------------------------------------

---------------------------------------------------------------------------
----5h8p5h8p5h8p5h8p5h8p5h8p5h8p5(bend-down)-------------------------------
----------------------------------------------5--5-5-5-5------------------
-7---------------------------------------------------------0h2p0h2p0h2~----
--------------------------------------------------3-3-3-3------------------
---------------------------------------------------------------------------

-------8--------------------------------------------------------------------
------------------------------------------7(8)-7(8)-7(8)-7(8)--8h10p8h10p8h-
-7(9)-----7-5-7-5--7-5---7-5---7-5---7-5--7(9)-7(9)-7(9)-7(9)---------------
-----------------7-----7-----7-----7----------------------------------------
----------------------------------------------------------------------------
----------------------------------------------------------------------------

---------------------------------------------------------------------------
10p8h10p8------------------12-13-12-------13-12-------13-12-------13-12----
-----------14(16)-br-12-14----------14-12-------14-12-------14-12-------14-
---------------------------------------------------------------------------
---------------------------------------------------------------------------
---------------------------------------------------------------------------

-------------12-13-12-----------------15----------20(22)-20(22)-20(22)-17--
----12-13-15----------15-13-12-15(17)----15(17)----------------------------
-12------------------------------------------------------------------------
---------------------------------------------------------------------------
---------------------------------------------------------------------------
---------------------------------------------------------------------------

-20-17----17--------------17--------------17--------------17--------------17
-------20----20-17-20(22)----20-17-20(22)----20-17-20(22)----20-17--17-20---
----------------------------------------------------------------------------
----------------------------------------------------------------------------
----------------------------------------------------------------------------
----------------------------------------------------------------------------

----------------------------------------------------------------------------
-20-17-20-17----20-17----20-17----20-17---20-17-----------------------------
-------------19-------19-------19------19-------19-17-----------------------
------------------------------------------------------19--------------------
----------------------------------------------------------------------------
----------------------------------------------------------------------------

Solo 2:		---------------------------------------------------------------------------
---------------------------------------------------------------------------
---------------------------------------------------------------------------
----------------------------------------10~-/////---10h12p10h12p10h12--
-10h12p10h12p10h12p10h12~--10h12p10h12-------------------------------------
---------------------------------------------------------------------------

-----------------------------------------------------12---------------12---
----------------------------------------------15(16)----15-13--15(16)----15
---------------------------------------------------------------------------
-14--12--10----------------------------------------------------------------
-------------12---10-------------------------------------------------------
----------------------12--10--///////----------------------------------

-----------12--------------12-----------------------------------------------
-13-15(16)----15-13-15(16)----15-13-13h15p13h15p13h15p13h15p13-12h13p12h13p-
----------------------------------------------------------------------------
----------------------------------------------------------------------------
----------------------------------------------------------------------------
----------------------------------------------------------------------------

------------------------------15-----15-----15-----15-----15-----15--------
12h13p12h13p12----------------18(20)-18(20)-18(20)-18(20)-18(20)-18(20)----
----------------14(16)-br-14-----------------------------------------------
---------------------------------------------------------------------------
---------------------------------------------------------------------------
---------------------------------------------------------------------------

-12-15-12-------------------------------------15(17)--15h17-15h17-15h17----
-----------15(17)-15(17)-13-15-13----13------------------------------------
----------------------------------14----14-12------------------------------
---------------------------------------------------------------------------
---------------------------------------------------------------------------
---------------------------------------------------------------------------

-15h17p15h17p15h17------------------------------------------------------12--
-------------------15h17p15h17p15h17-13-15-13---------------------12-15-----
-----------------------------------------------14-----------12-14-----------
------------------------------------------------------12-14-----------------
----------------------------------------------------------------------------
----------------------------------------------------------------------------

-15-17-17(19)-17(19)--19(20)--15h17-15h17-15h17-15--14-13-12(13)-br-10-12--
---------------------------------------------------------------------------
---------------------------------------------------------------------------
---------------------------------------------------------------------------
---------------------------------------------------------------------------
---------------------------------------------------------------------------

-12(13)-br-10---------------------------------------------------------------
--------------12-----------------------------------------------------------
----------------------------------------------------------------------------
----------------------------------------------------------------------------
----------------------------------------------------------------------------
----------------------------------------------------------------------------
Добавлено: 26.11.2013
Другие материалы по этой песне:

Страница создана 24.05.2012
http://primanota.ru/manowar/shell-shock-chords.htm
Привет, Гость.
Предлагаем пройти революционный курс по гитаре.
Подарок от PrimaNota.Ru, забирай!