PrimaNota.ru - самый крупный в мире бесплатный архив песенных текстов, аккордов, табулатур и нот


Mando Diao - San Fransisco Bay - бас-таба, видео

Регистрация Запомнить меня
Войти через:  Facebook Google Twitter Vk Yandex Mail.ru

Mando Diao - San Fransisco Bay - бас-таба, видео

Печатать
Просмотров: 121
----------------------------------------------------------------------------
			     SAN FRANSISCO BAY - Mando Diao
----------------------------------------------------------------------------

Tabbed By :Joel B. 
Tuning:Standard

Nice song, well not one of my favourites of mando diao.
I hope erverything is right, if not comment and correct..
Much fun ;)

Intro:
G|------------------------|   |------|
D|-1414141413131312121210-|   |-/14\-|
A|------------------------|x8 |------|
E|------------------------|   |------|

Verse:
G|----------5h7-|
D|-7-77-5h7-----|x4
A|--------------|
E|--------------|

G|-----------------------------------|
D|/14141414\9-9-9-9-10101010-9-9-9-9-|
A|-----------------------------------|
E|-----------------------------------|

G|----------5h7-|
D|-7-77-5h7-----|x6
A|--------------|
E|--------------|

G|-----------------------------------|
D|/14141414\9-9-9-9-10101010-9-9-9-9-|
A|-----------------------------------|
E|-----------------------------------|

G|----------5h7-|
D|-7-77-5h7-----|x2
A|--------------|
E|--------------|

Chorus:
G|-----------------------------------|
D|-1212121212121212------------------|
A|-----------------1212121212121212--|
E|-----------------------------------|

G|-------------------------|------------------------|
D|-121212121212121214141414|--------12h14p12--------|
A|-------------------------|-1212h15---------151215-|
E|-------------------------|------------------------|

Verse:
G|----------5h7-|
D|-7-77-5h7-----|x4
A|--------------|
E|--------------|

G|-----------------------------------|
D|/14141414\9-9-9-9-10101010-9-9-9-9-|
A|-----------------------------------|
E|-----------------------------------|

G|----------5h7-|
D|-7-77-5h7-----|x2
A|--------------|
E|--------------|

Bridge:
G|----------------------------------|
D|-77777777777777777777777777777777-|
A|----------------------------------|x2
E|----------------------------------|

G|-9999999999999999999999999999999--|
D|----------------------------------|
A|----------------------------------|
E|----------------------------------|

G|----------------------------------|
D|-77777777777777777777777/---14--\-|
A|----------------------------------|
E|----------------------------------|

Verse:
G|----------5h7-|
D|-7-77-5h7-----|x4
A|--------------|
E|--------------|

G|-----------------------------------|
D|/14141414\9-9-9-9-10101010-9-9-9-9-|
A|-----------------------------------|
E|-----------------------------------|

G|----------5h7-|
D|-7-77-5h7-----|x6
A|--------------|
E|--------------|

G|-----------------------------------|
D|/14141414\9-9-9-9-10101010-9-9-9-9-|
A|-----------------------------------|
E|-----------------------------------|
                 
G|----------5h7-|--------------|
D|-7-77-5h7-----|-7-77---------|
A|--------------|------0-0-0-0-|
E|--------------|--------------|

Chorus:
G|-----------------------------------|
D|-1212121212121212------------------|
A|-----------------1212121212121212--|
E|-----------------------------------|

G|-------------------------|------------------------|
D|-121212121212121214141414|--------12h14p12--------|
A|-------------------------|-1212h15---------151215-|
E|-------------------------|------------------------|

G|----------5h7-|
D|-7-77-5h7-----|x4
A|--------------|
E|--------------|

G|-----------------------------------|
D|/14141414\9-9-9-9-10101010-9-9-9-9-|
A|-----------------------------------|
E|-----------------------------------|

G|----------5h7-|
D|-7-77-5h7-----|x2
A|--------------|
E|--------------|

End:
G|------------------------|   |------|
D|-1414141413131312121210-|   |-/14\-|
A|------------------------|x8 |------|
E|------------------------|   |------|

G|-------------------------------------|
D|-------------------------------------|
A|----------------------------------3--|
E|-5-5-5-3h5-5-5-3h5-5-5-3h5-5-5-3h5-5-|

G|--------------------------------------|
D|--------------------------------------|
A|----------------------------------3h5-|
E|-0-0-0-0-0-0-0-0h3-5-5-5-5-5-5-3h5----|

G|-------------------------------------|
D|-------------------------------------|
A|-------------------------------------|
E|-5-5-5-3h5-5-5-3h5-5-5-3h5-5-5-3h5-5-|

G|--------------------------------------|
D|--------------------------------------|
A|----------------------------------3h5-|
E|-0-0-0-0-0-0-0-0h3-5-5-5-5-5-5-3h5----|

G|---------------------|
D|---------------------|
A|---------------------|
E|-5-~-~-~-~-~-~-~-~---|

| /  slide up
| \  slide down
| h  hammer-on
| p  pull-off
| ~  vibrato
| +  harmonic
| x  Mute note
=============================================================================
Добавлено: 28.05.2012
Другие материалы по этой песне:
  • Аккорды и текст

Страница создана 28.05.2012
http://primanota.ru/mando-diao/san-fransisco-bay-chords.htm
Привет, Гость.
Предлагаем пройти революционный курс по гитаре.
Подарок от PrimaNota.Ru, забирай!