PrimaNota.ru - самый крупный в мире бесплатный архив песенных текстов, аккордов, табулатур и нот


Manchester Orchestra - Where Have You Been - текст песни, таба, видео

Регистрация Запомнить меня
Войти через:  Facebook Google Twitter Vk Yandex Mail.ru

Manchester Orchestra - Where Have You Been - текст песни, таба, видео

Печатать
Просмотров: 341
http://www.themanchesterorchestra.com/


this if my first tab. its really simple.

Tabbed by: Colemen Wilson
Artist: Manchester Orchestra
Song: Where have you been


standard tuning

intro
e]---0---5---0---5---0---5---0---5-|
b]-2---2---2---2---2---2---2---2---|
g]---------------------------------|      x5
d]---------------------------------|
a]---------------------------------|
e]---------------------------------|

the call holidays and option for a reason, i heard you coming back to.....

e]----------------------------------------------------------|
b]----------------------------------------------------------|
g]----------------------------------------------------------|
d]--------4------------------------2---------------------0--|    x2
a]----------------------------------------------------------|
e]----------------------------------------------------------|


e]---0---5---0---5---0---5---0---5---0---5---0---5---0---5---9---7---5-|
b]-2---2---2---2---2---2---2---2---2---2---2---2---2---2---2-----------|
g]---------------------------------------------------------------------|
d]---------------------------------------------------------------------|
a]---------------------------------------------------------------------|
e]---------------------------------------------------------------------|

 deliver all my blessings....

e]----------------------------------------------|
b]----------------------------------------------|
g]----------------------------------------------|
d]-4---------------------2---------------0----0-|
a]----------------------------------------------|
e]----------------------------------------------|

    wished id known that you were bleeding while i sat and watched.....
e]-----------------------------0----------------------------0--------------|
b]-------------------------------------------------------------------------|
g]-------------------------------------------------------------------------|
d]----2---------4-----------------------------------2--------------0-----0-|
a]-------------------------------------------------------------------------|
e]-------------------------------------------------------------------------|

    cuz when you look at me, i'll be digesting...your legs
e]------------------------------------------------------------------|
b]------------------------------------------------------------------|
g]------------------------------------------------------------------|
d]------------------------------------------------------------------|
a]-4--------------------0-------------------------------------------|
e]---------------------------------------2------------0-------------|

  cuz i can hardly see, whats in front of me, these days
e]--------------------------------------------------------------------|
b]-4---------------------------------------------------2--------------|
g]-4----------------2----------------------------------2--------------|
d]-2----------------2---------------------2------------0--------------|
a]------------------0---------------------2---------------------------|
e]----------------------------------------0---------------------------|

e]---0---5---0---5---0---5---0---5---0---5---0---5---0---5---5--------|
b]-2---2---2---2---2---2---2---2---2---2---2---2---2---2---2---2------|
g]--------------------------------------------------------------------|
d]--------------------------------------------------------------------|
a]--------------------------------------------------------------------|
e]--------------------------------------------------------------------|

i gotta Take what im making and turn it into something
e][[-----2-2-x-x-x-x-x-x-x-x-x-x-x-x-x-x-x-x-x-x-x-x-x-x-------------|
b][[-----3-3-x-x-x-x-x-x-x-x-x-x-x-x-x-x-x-x-x-x-x-x-x-x-------------|
g][[-----2-2-x-x-x-x-x-x-x-x-x-x-x-x-x-x-x-x-x-x-x-x-x-x-------------|
d][[---------x-x-x-x-x-x-x-x-x-x-x-x-x-x-x-x-x-x-x-x-x-x-------------|
a][[-----------------------------------------------------------------|
e][[-----------------------------------------------------------------|

i gotta....                                             ...for you
e]---------x-x-x-x-x-x-x-x-x-x-x-x-x-x-x-x-x-x-x-x-x-x-x-x----------|
b]-----2-2-x-x-x-x-x-x-x-x-x-x-x-x-x-x-x-x-x-x-x-x-x-x-x-x--1-1-----|
g]-----2-2-x-x-x-x-x-x-x-x-x-x-x-x-x-x-x-x-x-x-x-x-x-x-x-x--2-2-----|
d]-----2-2-x-x-x-x-x-x-x-x-x-x-x-x-x-x-x-x-x-x-x-x-x-x-x-x--3-3-----|
a]------------------------------------------------------------------|
e]------------------------------------------------------------------|


e]-------x-x-x-x-x-x-x-x-x-x-x-x-x-x-x-x-x-x-x-x-x-x---------------]]
b]-------x-x-x-x-x-x-x-x-x-x-x-x-x-x-x-x-x-x-x-x-x-x---1-1---------]]
g]-------x-x-x-x-x-x-x-x-x-x-x-x-x-x-x-x-x-x-x-x-x-x---2-2---------]] x2
d]-------x-x-x-x-x-x-x-x-x-x-x-x-x-x-x-x-x-x-x-x-x-x---3-3---------]]
a]-----------------------------------------------------------------]]
e]-----------------------------------------------------------------]]


      cuz when you look at me, i'll be digesting.....your legs
e]----------------------------------------------------------------------|
b]----------------------------------------------------------------------|
g]-4------------------------2-------------------------------------------|
d]-4------------------------2----------------2--------------2-----------|
a]-2------------------------0----------------2--------------2-----------|
e]-------------------------------------------0--------------0-----------|

        and i can hardly see, whats in front of me these days
e]----------------------------------------------------------------------|
b]----------------------------------------------------------------------|
g]-4----------------------2----------------------------------7----------|
d]-4----------------------2---------------------2------------7----------|
a]-2----------------------0---------------------2------------5----------|
e]----------------------------------------------0-----------------------|


e]---0---5---0---5---0---5---0---5---0---5---0---5---0---5---9---7---5-|
b]-2---2---2---2---2---2---2---2---2---2---2---2---2---2---2-----------|
g]---------------------------------------------------------------------|
d]---------------------------------------------------------------------|
a]---------------------------------------------------------------------|
e]---------------------------------------------------------------------|

e]---0---5---0---5---0---5---0---5---0---5---0---5---0---5---0---5----|
b]-2---2---2---2---2---2---2---2---2---2---2---2---2---2---2---2------|
g]--------------------------------------------------------------------|
d]--------------------------------------------------------------------| x10
a]--------------------------------------------------------------------|
e]--------------------------------------------------------------------|

this took me forever its at least 95% right

questions or comments- (jib_master_32@hotmail.com)
Добавлено: 11.03.2012
Другие материалы по этой песне:
  • Аккорды и текст

Страница создана 11.03.2012
http://primanota.ru/manchester-orchestra/where-have-you-been-chords.htm
Привет, Гость.
Предлагаем пройти революционный курс по гитаре.
Подарок от PrimaNota.Ru, забирай!